Nada Surf - Inside Of Love Chords & Tabs

 

Inside Of Love Chords & Tabs

Nada Surf Chords & Tabs

Version: 2 Type: Tab 0 ratings
1 star 2 stars 3 stars 4 stars 5 stars
comments

Inside Of Love Tab

   
inside of love by nada surf
tabbed for one guitar by pourn@glassjaw.net
capo 2nd fret

G -320033
d?-xx1232

intro
e|----------(0-0)-G                                    d               d?
  I want know what it's like on the inside of love
Em                       Am             C
   I'm standing at the gates, I see the beauty above

(1:26)
e|----------(0-0)-[ Tab from: http://www.guitartabs.cc/tabs/n/nada_surf/inside_of_love_tab_ver_2.html ]
e|-------------------------------------------|
b|10-10-10-8-8-8-8-8-10-10-10-10-10-10-10-10-|
g|-x--x--x-x-x-x-x-x--x--x--x--x--x--x--x--x-|
d|-9--9--9-9-9-9-9-9-10-10-10-10-10-10-10-10-|
a|-7--7--7-7-7-7-7-7--8--8--8--8--8--8--8--8-|
E|-------------------------------------------|
   start,                      it's getting 

e|---------------------------------|
b|-5-5-5-5-5-5-5-5-5-5-5-5-5-5-5-5-|
G|-x-x-x-x-x-x-x-x-x-x-x-x-x-x-x-x-|
d|-5-5-5-5-5-5-5-5-5-5-5-5-5-5-5-5-|
a|-3-3-3-3-3-3-3-3-3-3-3-3-3-3-3-3-|
E|---------------------------------|
   worse.

chorus(2:20)
G                                    d               d?
  I want know what it's like on the inside of love
Em                       Am             C
   I'm standing at the gates, I see the beauty above
G                                    d               
  I want know what it's like on the inside of love
Am                  Em     C  
  Can't find my way in,      I try again and

(3:00)
  e|-0-0-0-0-0---3-7-3-2-|
  b|-0-0-5-3-0---0-0-0-3-|
  g|-4-5-5-5-5---0-0-0-0-|
  d|---------------------|
  a|---------------------|
  E|---------------------|x2
again

e|-2---2---0---0-|
b|-1---0---1---1-|
g|-0---0---0---0-|
d|---------2---2-|
a|---------3---3-|
E|-------------3-|

G                             d 
  I'm on the outside of love,   always under or above
Am                  Em    C                    Am
I can't find my way in,     I try again and again
G                             d
  I'm on the outside of love,  always under or above
Am                      Em    C                  Am
 Must be a different view,      to be a me with a you

G                                    d               d?
  I want know what it's like on the inside of love
Em                       Am             C
   I'm standing at the gates, I see the beauty above
G                                    d               
  I want know what it's like on the inside of love
Am                    Em      C
  Of course I'll be alright,    I just had a bad 

e|-----------------------------------------------------------------3-|
b|-----------------------------------------------------------------3-|
g|-----------------------------------------------------------------0-|
d|-7-9-7-9-7-9-7-9-7-9-7-9-7-9-7-9-4-5-4-5-4-5-4-5-4-5-4-5-4-5-4-5-0-|
a|-x-x-x-x-x-x-x-x-x-x-x-x-x-x-x-x-0-0-0-0-0-0-0-0-0-0-0-0-0-0-0-0-2-|
E|-8-8-8-8-8-8-8-8-8-8-8-8-8-8-8-8---------------------------------3-|
   night             I had a bad   night.
Comments