Nada Surf - Enjoy The Silence Chords & Tabs

 

Enjoy The Silence Chords & Tabs

Nada Surf Chords & Tabs

Version: 1 Type: Tab 0 ratings
1 star 2 stars 3 stars 4 stars 5 stars
comments

Enjoy The Silence Tab

   
Nada Surf - Enjoy The Silence
Tabbed by swiz2000

Tabs from Acoustic Session
http://www.youtube.com/watch?v=4nSUDQP2HXU

Capo on 6, all chords and tabs written in relation to capo.

Special Cords through the whole song:

F - X 3 3 2 1 0
C - 3 3 2 0 1 0


Intro I

e|---------------|------------|--------------|--------------|
B|------------0--|------------|-----------0--|--------------|
G|------2--------|-----2---0--|-----2--------|----2------0--|
D|---------------|------------|--------------|--------------|
A|---3-----3-----|--3----3----|--3-----3-----|--3-----3-----|
E|---------------|------------|--------------|--------------|

e|--------------|--------------|--------------|-------------|
B|--------------|--------------|--------------|-------------|
G|--------------|------2----0--|--------------|-----2---0---|
D|-----3-----2--|--------------|-----3-----2--|-------------|
A|--0-----0-----|--3----3------|--0-----0-----|--3----3-----|
E|--------------|--------------|--------------|-------------|

Intro II  -  Play this twice

e|---------------------------------------------------|
B|---------------------------------------------------|
G|------------------------------------------0--------|
D|------------------------0-----2-----3----------0---|
A|------0-----2-----3--------------------------------|
E|---3-----3-----3-----3-----3-----3-----3----3------|

Am C F 

Am                   C
Words like violence, break the silence,
F
come crashing in, into my little world.
Am             C
Painful to me, pierce right through me,
F                     C            G
can't you understand, oh my little girl.
[ Tab from: http://www.guitartabs.cc/tabs/n/nada_surf/enjoy_the_silence_tab.html ]
Chorus:
Dm                 F                     C          G
All I ever wanted, All I ever needed is here in my arms.
Dm              F           C             G      
Words are very unnecessary, They can only do harm.

G Am C F  

Am              C
Vows are spoken to be broken,
F
feelings are intense, words are trivial.
Am                C
Pleasures remain, so does the pain
F                      C          G
words are meaningless, and forgettable... Ohh...

Chorus: X2

e|---------------|------------|--------------|--------------|
B|------------0--|------------|--------------|--------------|
G|------2--------|-----5---0--|-----0--------|----0---------|
D|---------------|------------|-----------2--|-----------2--|
A|---3-----3-----|--3----3----|--3-----3-----|--3-----3-----|
E|---------------|------------|--------------|--------------|

e|---------------|------------|--------------|
B|------------0--|------------|--------------|
G|------2--------|-----5---0--|-----0--------|
D|---------------|------------|-----------2--|
A|---3-----3-----|--3----3----|--3-----3-----|
E|---------------|------------|--------------|

e|---------------------------------------------------|
B|---------------------------------------------------|
G|------------------------------------------0--------|
D|------------------------0-----2-----3----------0---|
A|------0-----2-----3--------------------------------|
E|---3-----3-----3-----3-----3-----3-----3----3------|

Chorus:: X2

Refrain: 

Dm         F      C       G
Pa-pa-pa,  pa-pa, pa-pa,  pa-pa

Dm         F      C       G
Pa-pa-pa,  pa-pa, pa-pa,  pa-pa

Dm         F      C       G
Pa-pa-pa,  pa-pa, pa-pa,  pa-pa

Dm         F      C       G
Pa-pa-pa,  pa-pa, pa-pa,  pa-pa
Comments