Nada Surf - Concrete Bed Chords & Tabs

 

Concrete Bed Chords & Tabs

Nada Surf Chords & Tabs

Version: 3 Type: Tab 0 ratings
1 star 2 stars 3 stars 4 stars 5 stars
comments

Concrete Bed Tab

   
-------------------------------------------------------------------------------
			     Concrete Bed  Nada Surf
-------------------------------------------------------------------------------
Tabbed by: Andrew
Email:

Tuning:
Intro
e|-----------------------------------------------------------------------------|
B|-------7-5-5-7-5-5-7--5--7-5-5-7-5-5-7--7-0-0-7-0-0-7--0--7-0-0-7-0-0-7------|
G|-------6-6-6-6-6-6-6--6--6-6-6-6-6-6-6--6-6-6-6-6-6-6--6--6-6-6-6-6-6-6------|
D|-------7-7-7-7-7-7-7--7--7-7-7-7-7-7-7--7-7-7-7-7-7-7--7--7-7-7-7-7-7-7------|
A|----------------------------------------6-6-6-6-6-6-6--6--6-6-6-6-6-6-6 -----|
E|-----------------------------------------------------------------------------|



e|-----------------------------------------------------------------------------|
B|---7-0-0-7-0-0-7--0--7-0-0-7-0-0-7-------------------------------------------|
G|---6-6-6-6-6-6-6--6--6-6-6-6-6-6-6--7-7-7-7-7-7-6-6-6-6-6-6------------------|
D|---7-7-7-7-7-7-7--7--7-7-7-7-7-7-7--7-7-7-7-7-7-7-7-7-7-7-7------------------|
A|---5-5-5-5-5-5-5--5--5-5-5-5-5-5-5--x-x-x-x-x-x-x-x-x-x-x-x------------------|
E|------------------------------------5-5-5-5-5-5-5-5-5-5-5-5------------------|


Verse
e|-----------------------------------------------------------------------------|
B|---7-5-5-7-5-5-7--5--7-5-5-7-5-5-7--7-0-0-7-0-0-7--0--7-0-0-7-0-0-7----------|
G|---6-6-6-6-6-6-6--6--6-6-6-6-6-6-6--6-6-6-6-6-6-6--6--6-6-6-6-6-6-6----------|
D|---7-7-7-7-7-7-7--7--7-7-7-7-7-7-7--7-7-7-7-7-7-7--7--7-7-7-7-7-7-7----------|
A|------------------------------------5-5-5-5-5-5-5--5--5-5-5-5-5-5-5 ---------|
E|-----------------------------------------------------------------------------|



e|-----------------------------------------------------------------------------|
B|---7-5-5-7-5-5-7--5--7-5-5-7-5-5-7--7-0-0-7-0-0-7----------------------------|
G|---6-6-6-6-6-6-6--6--6-6-6-6-6-6-6--6-6-6-6-6-6-6----------------------------|
D|---7-7-7-7-7-7-7--7--7-7-7-7-7-7-7--7-7-7-7-7-7-7----------------------------|
A|------------------------------------6-6-6-6-6-6-6----------------------------|
E|-----------------------------------------------------------------------------|


[ Tab from: http://www.guitartabs.cc/tabs/n/nada_surf/concrete_bed_tab_ver_3.html ]
e|-----------------------------------------------------------------------------|
B|---7-0-0-7-0-0-7--0--7-0-0-7-0-0-7-------------------------------------------|
G|---6-6-6-6-6-6-6--6--6-6-6-6-6-6-6--7-7-7-7-7-7-6-6-6-6-6-6------------------|
D|---7-7-7-7-7-7-7--7--7-7-7-7-7-7-7--7-7-7-7-7-7-7-7-7-7-7-7------------------|
A|---5-5-5-5-5-5-5--5--5-5-5-5-5-5-5--x-x-x-x-x-x-x-x-x-x-x-x------------------|
E|------------------------------------5-5-5-5-5-5-5-5-5-5-5-5------------------|


Chorus
e|-----------------------------------------------------------------------------|
B|---2-2-2-2-2-2--5-5-5-5-5-5--5-5-5-5-5-5--7-7-7-7-7-7------------------------|
G|---3-3-3-3-3-3--6-6-6-6-6-6--7-7-7-7-7-7--8-8-8-8-8-8------------------------|
D|---4-4-4-4-4-4--7-7-7-7-7-7--6-6-6-6-6-6--9-9-9-9-9-9------------------------|
A|---4-4-4-4-4-4--7-7-7-7-7-7--7-7-7-7-7-7--9-9-9-9-9-9------------------------|
E|-----------------------------------------------------------------------------|

Outro

e|---2-------5-----------------------------------------------------------------|
B|---2-------5------5------7---------------------------------------------------|
G|---3-x5----6-x5---7-x5---8-x5------------------------------------------------|
D|---4-------7------6------9---------------------------------------------------|
A|---4-------7------7------9---------------------------------------------------|
E|---2-------5-----------------------------------------------------------------|



e|-----------------------------------------------------------------------------|
B|-----END-ON-----5------------------------------------------------------------|
G|----------------6------------------------------------------------------------|
D|----------------7------------------------------------------------------------|
A|-----------------------------------------------------------------------------|
E|-----------------------------------------------------------------------------|





Intro x1
Verse x1
Chorus x2
Intro x1
Verse x1
Chorus x6
Outro x2
Chorus x2


| /  slide up
| \  slide down
| h  hammer-on
| p  pull-off
| ~  vibrato
| +  harmonic
| x  Mute note
===============================================================================
Comments