Nada Surf - Always Love Chords & Tabs

 

Always Love Chords & Tabs

Nada Surf Chords & Tabs

Version: 3 Type: Chords 0 ratings
1 star 2 stars 3 stars 4 stars 5 stars
comments

Always Love Chords

   
Intro

e--------0-------|------0--------|------0--------|-------0--------|
B----1-----1-----|--1-----1------|-0-------0-----|---1-----1---1--|
G------2-------0-|--------------0|----0--------0-|-----2-----2----|
D--3---------3---|-----2------2--|-----------2---|----------------|
A----------------|-3-------------|---------------|-0--------------|
E----------------|---------------|0--------------|----------------|

To make a mountain of
Your life is just a choice
But I never learned enough
To listen to the voice that told me
Always love
Hate will get you everytime
Always Love
Don't wait til the finish line

Strum chords:
F C Em Am  

Verse 1:
F                 C
Slow demands come 'round
Em                   Am
Squeeze the air and keep the rest out 
F                   C
It helps to write it down 
Em          Am
Even if you then cross it out 

Chorus:
F      C
Always Love 
G                 F   
Hate will get you every time 
F      C
Always Love 
G                   F 
Don't wait 'til the finish line
[ Tab from: http://www.guitartabs.cc/tabs/n/nada_surf/always_love_crd_ver_3.html ]
Verse 2:
F              C
Self directed lives 
  Em                 Am
I want to know what it'd be like to 
F             C
Aim so high above 
Em              Am
Any card that you've been delt you

Chorus:
F      C
Always Love 
G                 F   
Hate will get you every time 
F      C
Always Love 
G                   
Hate will get you

Bridge:
G                          F
And I've been held back by something 
  C                    Dm
Yeah, you said to me quietly 
       F   
on the stairs. 

I've been held back by something 
  C                  Dm
Yeah, you said to me quietly 
       F
on the stairs. 

You said 
G  F       C
   Hey you good ones 
G  F       C
   Hey you good ones 

e--------0-------|------0--------|------0--------|-------0--------|
B----1-----1-----|--1-----1------|-0-------0-----|---1-----1---1--|
G------2-------0-|--------------0|----0--------0-|-----2-----2----|
D--3---------3---|-----2------2--|-----------2---|----------------|
A----------------|-3-------------|---------------|-0--------------|
E----------------|---------------|0--------------|----------------|

To make a mountain of
Your life is just a choice
But I never learned enough
To listen to the voice that told me


Repeat Chorus
Repeat Bridge

G   F   C
Ohh ohh ohh
Comments