Nachojiab - Sera Chords & Tabs

 

Sera Chords & Tabs

Nachojiab Chords & Tabs

Version: 1 Type: Tab 0 ratings
1 star 2 stars 3 stars 4 stars 5 stars
comments

Sera Tab

e-|-----------------------------------|-
B-|-----------------------------------|-
G-|-----------------------------------|-
D-|-----1-3------1-3-------1-3-----1-3|-
A-|-1-1----------------1-1------------|-
E-|----------1-1----------------1-1---|-
[ Tab from: http://www.guitartabs.cc/tabs/n/nachojiab/sera_tab.html ]
e-|-8-8-8-86-6-6-64-4-4-41-1---1-1-1-4/6-4/6--4/6-4/6----|--|
B-|---------------------------------------------------------|--|
G-|---------------------------------------------------------|--|
D-|---------------------------------------------------------|--|
A-|---------------------------------------------------------|--|
E-|---------------------------------------------------------|--|

e-|-8-8-8-86-6-6-64-4-4-41-1---1-1-1-4/6-4/6--4/6-1------|--|
B-|---------------------------------------------------------|--|
G-|---------------------------------------------------------|--|
D-|---------------------------------------------------------|--|
A-|---------------------------------------------------------|--|
E-|---------------------------------------------------------|--|
Comments