Nachojiab - Para Eliza Chords & Tabs

 

Para Eliza Chords & Tabs

Nachojiab Chords & Tabs

Version: 1 Type: Tab 0 ratings
1 star 2 stars 3 stars 4 stars 5 stars
comments

Para Eliza Tab

|-0---0---0---------------------------------------0---0---0-------
|---4---4---0-3-1-------------0---------0-1---------4---4---0-3-1-
|-----------------2---------2---------1---------------------------
|-------------------------2---------2-----------2-----------------
|-----------------------3-----------------------------------------
|-----------------------------------------------------------------

[ Tab from: http://www.guitartabs.cc/tabs/n/nachojiab/para_eliza_tab.html ]
|-------------------------0---0---0-------------------
|----------0-------1-0------4---4---0-3-1-------------
|2-------2-------------2------------------2---------2-
|------2---------2--------------------------------2---
|----3------------------------------------------3-----
|-----------------------------------------------------



|------------------0---0---0-------------------
|0-------0-1---------4---4---0-3-1-------------
|------1---------------------------2---------2-
|----2-----------2-------------------------2---
|----------------------------------------3-----
|----------------------------------------------
Comments