N Sync - This I Promise You Chords & Tabs

 

This I Promise You Chords & Tabs

N Sync Chords & Tabs

Version: 7 Type: Tab 0 ratings
1 star 2 stars 3 stars 4 stars 5 stars
comments

This I Promise You Tab

##################################################################################
# This file is the author's own work and represents their interpretation of the  #
# song. You may only use this file for private study, scholarship, or research.  #
##################################################################################

This I Promise You 
by N'Sync


[ Tab from: http://www.guitartabs.cc/tabs/n/n_sync/this_i_promise_you_tab_ver_7.html ]
         ^      ^                          ^          ^        ^   
e|-----2------0--------0-2-3-3/2-0-------2------2-----------------------||-
B|---------------2/3-3-------------3-2/3------3---3/5--3-3/2-0----------||-
G|-0h2----0h2-------------------------------2---------------------2/4---||-
D|--------------------------------------------------------------0-------||-
A|----------------------------------------------------------------------||-
E|----------------------------------------------------------------------||-

pause at the ^ mark

Solo

e|-3h5-5-3/5-5--5-5-5-5/3-2-0--0-0-2-2-2/7-7--2-3-3/5-3-2-0---------||-
B|------------------------------------------------------------------||-
G|------------------------------------------------------------------||-
D|------------------------------------------------------------------||-
A|------------------------------------------------------------------||-
E|------------------------------------------------------------------||-


|---0-2-2-2-3-2------------|
|-3-------------3/5-5------|
|--------------------------|
|--------------------------|
|--------------------------|
|--------------------------|

you can check out the .crd version of this song for the 
chords during the verses.

Mail me if you have any comments/corrections at d_prankster13@hotmail.com
Any feedback is apreciated.
I'm Madaan 16/m from Malaysia.
Comments