N Sync - This I Promise You Chords & Tabs

 

This I Promise You Chords & Tabs

N Sync Chords & Tabs

Version: 6 Type: Tab 0 ratings
1 star 2 stars 3 stars 4 stars 5 stars
comments

This I Promise You Tab

   
##################################################################################
# This file is the author's own work and represents their interpretation of the  #
# song. You may only use this file for private study, scholarship, or research.  #
##################################################################################

"N Sync This I Promise You.
 Tabbed by Dona Junianto.
  
"THIS I PROMISE YOU" - Original words and music by Richard Marx; 
       perfomed my 'N Sync
       
Chords       D         x x 0 2 3 2
                  A         x 0 2 2 2 0
Bm7       x 2 4 2 3 2
                   G         3 2 0 0 0 2
Gmaj9     3 x 4 4 3 5
A2        x 0 2 2 0 0
G(9)      3 x 0 2 0 3
Asus      x 0 2 2 3 0
Em7       0 2 2 0 3 0
A7        x 0 2 0 2 0
A/C#      x 4 2 2 2 x
Gm6       3 x 0 3 3 0
D/A       x 0 0 2 3 2
C#m7      x 4 6 4 5 4
E/B       x 2 2 1 0 0
Amaj9     x 0 2 4 2 4
A/E       x x 2 2 2 0

Intro:
----------------------------------------------
----------------------------------------------
--------11------9---7-7-9-11-12-11h12p11-9--7-
----6/7-----6/7-------------------------------
----------------------------------------------
----------------------------------------------

---------------------------------
---------------------------------
-------7-7/9---7-6h7p6-----------
-----7-----------------9----0h7/9
---------------------------------
---------------------------------


Verse 1:
{---------------------------------2--
{----------5---------------3---------
{----4---2-----------4-6-------4-----
{------2---------------------4-------
{------------------------------------
{------------------------------------
           When the... 
[ Tab from: http://www.guitartabs.cc/tabs/n/n_sync/this_i_promise_you_tab_ver_6.html ]
-----------------------------}
----------------------3-----2}
--4-2-2---0--4------------4--}x2 then
--------0---------------4----}
-----------------------------}
-----------------------------}

--------------------------------------------------------------
----------------------10--------------------------------------
-----10/11------8/9-----------11--------------10/11----8/9----
------------------------------------12------------------------
--------------------------------------------------------------
--------------------------------------------------------------
..strength..you hope  keeping.faith..gone  ...call. all alone

---------------
---------------
--7-7-6h7p6----
------------9-7
---------------
---------------

D     A   Bm7   G
... Oooo.........
D    A    Gmaj9
...Ooooo..........

3rd time Guitar solo:

-----------------------------------------------------------
9/10-10-10-10\--10-10-10-8-7h8p7------------------11/12-12-
---------------------------------9-----9p7-9/11-11---------
-----------------------------------------------------------
-----------------------------------------------------------
-----------------------------------------------------------

-------------------------------------------------
---------9/10-8-7--------------------------------
---11-12----------9--=7-9--11-11-11h12-11-9h11-9-
-------------------------------------------------
-------------------------------------------------
-------------------------------------------------

Amaj9
This I promise you
E                   B
Every word I say is true
          Amaj9
This I promise you
          E         A/E   E   A/E  E
Ooo, I promise you------------------ 

I dedicated this for my only love 
Dian sartika ekawati zufaina kesumawardhani cantik
Dona Junianto
Comments