N Sync - This I Promise You Chords & Tabs

 

This I Promise You Chords & Tabs

N Sync Chords & Tabs

Version: 4 Type: Tab 1 rating
1 star 2 stars 3 stars 4 stars 5 stars
comments

This I Promise You Tab

   
Tabbed by: Mickey C
Song: This I Promise You
Email: ooobubblesooo@home.com

I am new @ writing tabs so don't laugh or nuthin, ok the intro & solo
are in tabs & the chords are @ the bottom



*Intro*
|-------0--2--3--2--0--------2--0-0----------------|
|-3--3-----------------3--3----------3--2--0-----0-|
|--------------------------------------------------|
|---------------------------------------------0----|
|--------------------------------------------------|
|--------------------------------------------------|

[ Tab from: http://www.guitartabs.cc/tabs/n/n_sync/this_i_promise_you_tab_ver_4.html ]
*Solo*
|-------0-----5-5-5-5-5-5-5--3--2--0--0-0--2-2--7-7--
|-2--3-----3-----------------------------------------
|----------------------------------------------------
|----------------------------------------------------
|----------------------------------------------------
|----------------------------------------------------

 -2--3--5--3--2--0-----0--2-2-2--3--2--0--2--0-|
 -------------------3--------------------------|
 ----------------------------------------------|
 ----------------------------------------------|
 ----------------------------------------------|
 ----------------------------------------------|


ok now the chords

verse:  A  Bm  G  A

chorus:  D  A  Bm  G  D  A  G  D

ok that's it....bye!
Comments