N Sync - This I Promise You Chords & Tabs

 

This I Promise You Chords & Tabs

N Sync Chords & Tabs

Version: 3 Type: Tab 0 ratings
1 star 2 stars 3 stars 4 stars 5 stars
comments

This I Promise You Tab

   
Title: This I promise you
Artist: NSYNC
Album: No Strings Attached
Year: 2000

Tuning : E A D G B E 

kuestions: burbujo_power_puff_boy@hotmail.com


 INTRO:

  D          A       Bm7      G              D         A
 |------------------------0-2-3-2h3p2p0---2--------------------|
 |------7-------------3-3---------------3-3------3-3/--5-------|
 |--2/7-----------9----------------------------2---------------|
 |------------2/7----------------------------------------------|
 |-------------------------------------------------------------|
 |-------------------------------------------------------------|

            G
 |-------------------------------|
 |3---2h3p2-0--------------------|
 |----------------2/4------------|
 |--------------0----------------|
 |-------------------------------|
 |-------------------------------|


 VERSE 1:

  A               Bm            G               Asus    A
 |------0---------------2-----------------------------------------|
 |0-----------0h2-3-------------------0-----0---3-----2-----2-----|
 |----2-----2---------4-----4-2-2---0---0-----------2-----2-------|  X 2
 |--2-----2---------4-----4-------0-------0-------2-----2---------|
 |0---------------2-----------------------------0-----------------|
 |------------------------------3---------------------------------|


  
  Em7           A7          D       A/C#    Bm7
 |--------------------0-----------2------------------|
 |------3/5---------2-----------3---------2-------3--|
 |----0-----------0-----------2---------2-------2----|
 |--2-----------2-----------0---------2-------4------|
 |----------------------------------4-------2--------|
 |0--------------------------------------------------|



  Em7           Gm6         Asus              A
 |----------------------------------------------------0-|
 |------3------------3------------3-3-2h3p2-0-------2---|
 |----0------------0------------2-------------2---2-----|
 |--2-------------0-----------2-----------------2-------|
 |--------------------------0---------------------------|
 |0-------------3---------------------------------------|



 CHORUS :

    D            A           Bm7        G
 |--2------------0-----------2----------3----
 |--3--3--3------2--2--2-----3--3-----3-3----
 |--2----------2-2---------2-2-----2----4----
 |--0------------2-----------4----------5----
 |---------------0-----------2----------5----
 |--------------------------------------3----

         D/A            A     Gmaj9                    D
 |-------2---------------------------------------------2--|
 |-----3----3----------2-----------3-----------3-------3--|
 |---2--------2------2----2------4----4------4----4----2--|
 |-0---------------2-----------5-----------5--------5--0--|
 |---------------0----------------------------------------|
 |---------------------------3-----------3----------------|



VERSE 2:

[ Tab from: http://www.guitartabs.cc/tabs/n/n_sync/this_i_promise_you_tab_ver_3.html ]
  A               Bm            G               Asus    A
 |------0---------------2-----------------------------------------|
 |0-----------0h2-3-------------------0-----0---3-----2-----2-----|
 |----2-----2---------4-----4-2-2---0---0-----------2-----2-------|  X 2
 |--2-----2---------4-----4-------0-------0-------2-----2---------|
 |0---------------2-----------------------------0-----------------|
 |------------------------------3---------------------------------|

  Em7              A7           D    A/C#    Bm7
 |-------------------------------------------------------------|
 |-----8--7h8p7-------------7-8-10---------------10/12---12/---|
 |---------------7-9-------------------------------------------|
 |-------------------------------------------------------------|
 |-------------------------------------------------------------|
 |-------------------------------------------------------------|

  Em7           Gm6         Asus     A
 |-------------------------------------------|
 |------3------------3------3--------2-------|
 |----0------------0--------2--------2-------|
 |--2-------------0---------2--------2-------|
 |--------------------------0--------0-------|
 |0-------------3----------------------------|


REPEAT CHORUS 1

BRIDGE:


 |-0---------------------0--0----------------0-----
 |-3---------------------2--3----------------2-----
 |-0---------------------2--0----------------2-----
 |-2---------------------2--2----------------2-----
 |-2---------------------0--2----------------0-----
 |-0-----------------------------------------0-----
    

              D   A        G                 Em7 
 |------------2---0--------3-----------------0----
 |------------3---2--------3-----------------3----
 |------------2---2--------0-----------------0----
 |------------0---2--------0-----------------2----
 |----------------0--------2-----------------2----
 |-------------------------3-----------------0----
    


 |----------------0--------0----|
 |----------------3--------2----|
 |----------------2--------2----|
 |----------------2--------2----|
 |----------------0--------0----|
 |------------------------------|
   


Guitar Solo:
      D                    A                     Bm7
 |---------------------------------------------------------------
 |-8/10-10--10-10/---8h10-10-8------------------------7-10/12-12-
 |------------------------------10h11p10-9---9-7-9/11------------
 |---------------------------------------------------------------
 |---------------------------------------------------------------
 |---------------------------------------------------------------

         G                   D            Dsus   D        A
  -----------------------------------------------------------|
  -7-8-8/10--8-7h8p7-5---------------------------------------|
  -----------------------7-9-9h11--11--11-11h12--11--9h11-9--|
  -----------------------------------------------------------|
  -----------------------------------------------------------|
  -----------------------------------------------------------|

Questions???? ----> burbujo_power_puff_boy@hotmail.com
Comments