N Sync - This I Promise You Chords & Tabs

 

This I Promise You Chords & Tabs

N Sync Chords & Tabs

Version: 2 Type: Tab 0 ratings
1 star 2 stars 3 stars 4 stars 5 stars
comments

This I Promise You Tab

   
Tabbed by Sonofnam
email: sonofnam@hotmail.com
This is Just the first part of the song.
I think this sounds right figure out the timing on your own
This is my first tab so it may not be perfect.

Tuning : E A D G B E 	

|       |       |       |        |       |       |       |
|----------------------------0-2-|3-2h3p2p0---2-------------------|
|------7-----------------3-3-----|----------3-3-----3-3/--5-------|
|2/--7-------------9-------------|----------------2---------------|
|------------2/--7---------------|--------------------------------|
|--------------------------------|--------------------------------|
|--------------------------------|--------------------------------|

|       |       |       |        |       |       |       |
|--------------------------------|------0---------------2---------|
|3---2h3p2p0---------------------|0-----------0h2-3---------------|
|----------------2/--4-----------|----2-----2---------4-----4-2-2-|
|--------------0-----------------|--2-----2---------4-----4-------|
|--------------------------------|0---------------2---------------|
|--------------------------------|------------------------------3-|
[ Tab from: http://www.guitartabs.cc/tabs/n/n_sync/this_i_promise_you_tab_ver_2.html ]
|       |       |       |        |       |       |       |
|--------------------------------|------0---------------2---------|
|----0-----0---3-----2-----2-----|0-----------0h2-3---------------|
|--0---0-----------2-----2-------|----2-----2---------4-----4-2-2-|
|0-------0-------2-----2---------|--2-----2---------4-----4-------|
|--------------0-----------------|0---------------2---------------|
|--------------------------------|------------------------------3-|

|       |       |       |        |       |       |       |
|--------------------------------|--------------------------------|
|----0-----0---3-----2-----2-----|--------------------------------|
|--0---0-----------2-----2-------|--------------------------------|
|0-------0-------2-----2---------|--------------------------------|
|--------------0-----------------|--------------------------------|
|--------------------------------|--------------------------------|

This is the solo 

|       |       |       |
|--2/5-5-5-5-----2/5-5-5---3-2h3p2p0|
|-----------------------------------|
|-----------------------------------|
|-----------------------------------|
|-----------------------------------|
|-----------------------------------|

|       |       |       |
|---------------------2-3-5-3-------|
|------5-5/7-7---7/1212-------------|
|-----------------------------------|
|-----------------------------------|
|-----------------------------------|
|-----------------------------------|

|       |       |       |
|2h3p2p0-----------2-2h3-2-0h2p0----|
|-----------------------------------|
|----------0h1h2-2------------------|
|-----------------------------------|
|-----------------------------------|
|-----------------------------------|



Created with TablEdit http://www.tabledit.com/


Well I hope this is correct.  If you have any questions or comments then give me an email at
sonofnam@hotmail.com


Comments