N Sync - This I Promise You Chords & Tabs

 

This I Promise You Chords & Tabs

N Sync Chords & Tabs

Version: 1 Type: Tab 0 ratings
1 star 2 stars 3 stars 4 stars 5 stars
comments

This I Promise You Tab

 this is my first tab, i wanted to do this cuz i saw how someone else did it and i think this sounds better so try it out!!
[ Tab from: http://www.guitartabs.cc/tabs/n/n_sync/this_i_promise_you_tab.html ]
          Intro: ----2-----------2-----0-------0--------
                 ----3-----3-----------3----3-----------
                 ----2--------2--------2-----------2----
                 ----------------------2----------------
                 ---------------------------------------
                 ---------------------------------------


                 ----3----------------------------------
                 ----3-----3---3--5--7--8--7--5--3--2--3
                 ----0----------------------------------
                 ----0----------------------------------
                 ----2----------------------------------
                 ----3----------------------------------

 
                if you have any ideas to improve it at all 
                contact me at Nastienate05@aol.com

Comments