N Sync - Gone Chords & Tabs

 

Gone Chords & Tabs

N Sync Chords & Tabs

Version: 3 Type: Tab 0 ratings
1 star 2 stars 3 stars 4 stars 5 stars
comments

Gone Tab

   
Artist: Nsync
Title: Gone
Album: Celebrity
Tabbed by: Whosierdadi@aol.com


Verse 1:
---------7--------------------6---------4-------------------------------------
-------9------------7-------7---------5---------------------------------------
-----8------------8-------8---------6----------------------------------------- 4X
---9------------9-------8---------6-------------------------------------------
-7------------9-------6---------4---------------------------------------------
------------7-----------------------------------------------------------------

---------------------------------------------------------------------------2--
-----------------------------------------4----------8---------------2---------
--------4-------4--------4-------4----------------9---------7-----------2-----
------4-------4--------4-------4-------4---6----9---------9-------4---4-------
----6-------6--------6-------6-------6--------7---------9-------4-------------
--7-------6--------7-------6-------4------------------7-------2---------------

Chorus:
-------7------------------------------------7-9--7h9p7------------------------
---------7---------7------------7h8p7------------------7----------------------
-----7-----7-----7---7--------7-----------7-----------------------------------
---9-----------9-------9----9-----------9-------------------------------------
-7------------------------7---------------------------------------------------
-------------7------------------------7---------------------------------------

------------------------------------------------------------------------------
-------7---------7------------------------------------------------------------
-----7-------------7------2-4-2h4p2-----2-4-2h4p2-----------------------------
---9-----------9--------4-------------4---------------------------------------
-7-----------9--------5-------------4-----------------------------------------
-----------7------------------------------------------------------------------
(you're) Gone (baby you're) Gone (girl you're gone. 

Little riff near beginning of verse 2....
------------------------------------------------------------------------------
------------------------------------------------------------------------------
--9-7-------------------------------------------------------------------------
------9-8---------------------------------------------------------------------
----------9-7-----------------------------------------------------------------
--------------9-7h9p7-6-------------------------------------------------------

Verse 2:
---------7--------------------6---------4-------------------------------------
-------9------------7-------7---------5---------------------------------------
-----8------------8-------8---------6-----------------------------------------
---9------------9-------8---------6-------------------------------------------
-7------------9-------6---------4---------------------------------------------
------------7-----------------------------------------------------------------
But if there's something that I could do .............

--------------6-------4h7p4----------------7-----9h11------------4------------
-7/9\7-------7----------------------------9------------11-------5-------------
-----------8---------6-------4h6--------8---------------------6---------------
---------8---------6-------------6----9---------------------6-----------------
-------6---------4------------------7---------------------4-------------------
------------------------------------------------------------------------------

The time is passing so slowly now
---------7--------------------6---------4-------------------------------------
-------9------------7-------7---------5---------------------------------------
-----8------------8-------8---------6-----------------------------------------
---9------------9-------8---------6-------------------------------------------
-7------------9-------6---------4---------------------------------------------
------------7-----------------------------------------------------------------

---------------------------------------------------------------------------2--
-----------------------------------------4----------8---------------2---------
--------4-------4--------4-------4----------------9---------7-----------2-----
------4-------4--------4-------4-------4---6----9---------9-------4---4-------
----6-------6--------6-------6-------6--------7---------9-------4-------------
--7-------6--------7-------6-------4------------------7-------2---------------

Chorus:
-------7------------------------------------7-9--7h9p7------------------------
---------7---------7------------7h8p7------------------7----------------------
-----7-----7-----7---7--------7-----------7-----------------------------------
---9-----------9-------9----9-----------9-------------------------------------
-7------------------------7---------------------------------------------------
-------------7------------------------7---------------------------------------

------------------------------------------------------------------------------
-------7---------7------------------------------------------------------------
-----7-------------7------2-4-2h4p2-----2-4-2h4p2-----------------------------
---9-----------9--------4-------------4---------------------------------------
-7-----------9--------5-------------4-----------------------------------------
-----------7------------------------------------------------------------------

Interlude:
							b		   b b b b b b
---10-9h10p9-7------10---9--------12-14-12h14p12----17vvvvvvvvvv--------------
---------------10-7------7----------------------------------------------------
-9-----------------------9----------------------------------------------------
------------------------------------------------------------------------------
------------------------------------------------------------------------------
------------------------------------------------------------------------------
[ Tab from: http://www.guitartabs.cc/tabs/n/n_sync/gone_tab_ver_3.html ]
-------------------9-10-12--10p9----------------------------------------------
---------------------------------10p7-----------------------------------------
---------6-7-6------------------------9p7-------------------------------------
---7/9-9---------9------------------------7-----------------------------------
-9----------------------------------------------------------------------------
------------------------------------------------------------------------------
					
Chorus:
-------7------------------------------------7-9--7h9p7------------------------
---------7---------7------------7h8p7------------------7----------------------
-----7-----7-----7---7--------7-----------7-----------------------------------
---9-----------9-------9----9-----------9-------------------------------------
-7------------------------7---------------------------------------------------
-------------7------------------------7---------------------------------------

	   b           b		 b b b b b
-------10-12-12-10-12-10---------13-------------------------------------------
----12-------------------12---------------------------------------------------
-11---------------------------------------------------------------------------
------------------------------------------------------------------------------
------------------------------------------------------------------------------
------------------------------------------------------------------------------

Guitar 1
-------7------------------------------------7-9--7h9p7------------------------
---------7---------7------------7h8p7------------------7----------------------
-----7-----7-----7---7--------7-----------7-----------------------------------
---9-----------9-------9----9-----------9-------------------------------------
-7------------------------7---------------------------------------------------
-------------7------------------------7---------------------------------------

------------------------------------------------------------------------------
-------7---------7------------------------------------------------------------
-----7-------------7------2-4-2h4p2-----2-4-2h4p2-----------------------------
---9-----------9--------4-------------4---------------------------------------
-7-----------9--------5-------------4-----------------------------------------
-----------7------------------------------------------------------------------

Guitar 2 of part above:
					   b b b b b
-14-15-14h15p14----14-------17----------------------7h8p7---------------------
----------------17------------------------------------------------------------
------------------------------------------------------------------------------
------------------------------------------------------------------------------
------------------------------------------------------------------------------
------------------------------------------------------------------------------

Ending
-----7----------9--10------------------14-15-15-15-15-14-14-14----------------
---8---8-----------------7h8p7------17-------------------------17-15----------
-9----------------------------------------------------------------------------
------------------------------------------------------------------------------
------------------------------------------------------------------------------
------------------------------------------------------------------------------ 
(you're)(Gone)baby(you're)Gone(girl you're gone.Baby girl you're)Gone (you're) Gone (you're)

---0--------------------------------------------------------------------------
--15----11---------7h8p7------------------------------------------------------
--------11---------------9p7-6------------------------------------------------
--------11---------------------9p8--------------------------------------------
----------------------------------9-------------------------------------------
------------------------------------------------------------------------------
But the truth remains your...... 

Lyrics:

There's a thousand words that I could say To make you come home Oh, seems so long ago you walked away Left me
alone I remember what you said to me You were acting so strange and maybe I was too blind to see That you
needed a change Was it something I said To make you turn away? To make you walk out and leave me cold If I
could just find a way To make it so that you were right here But right now..

I 've been sitting here Can't get you off my mind I've tried my best to be a man and be strong I've drove
myself insane Wishing I could touch your face But the truth remains.. You're gone.. You're gone.. Baby you're
gone Girl you're gone, baby girl, you're gone.. You're gone.. You're... 

I don't wanna make excuses, baby Won't change the fact that you're gone But if there's something that I could
do Won't you please let me know? Time is passing so slowly now..... Guess that's my life without you and maybe
I could change my every day But baby I don't want to So I'll just hang around and find some things to do To take
my mind off missing you and I know in my heart You can't say that you don't love me too Please say you do Yeeaah

I've been sitting here Can't get you off my mind I've tried my best to be a man and be strong I Drove myself
insane Wishing I could touch your face But the truth remains You're gone.. You're gone.. You're gone You're gone....
you're gone.. you're.... Gone Ohhh...

Oh what'll I do If I can't be with you Tell me where will I turn to Baby where will I be We are apart Am I
still in your heart? Baby why don't you see? That I need you here with me Oohhh... 

I've been sitting here Can't get you off my mind I've tried my best to be a man and be strong I've drove myself
insane Wishing I could touch your face But the truth remains Been sitting here Can't get you off my mind I've
tried my best to be a man and be strong I drove myself insane Wishing I could touch your face But the truth remains
 You're gone.. You're gone.. You're gone You're gone Gone You're gone.. But the truth remains You're.... 	

Comments