N Sync - Drive Myself Crazy Chords & Tabs

 

Drive Myself Crazy Chords & Tabs

N Sync Chords & Tabs

Version: 1 Type: Tab 1 rating
1 star 2 stars 3 stars 4 stars 5 stars
comments

Drive Myself Crazy Tab

can anyone figure out the rest?
----------------
N'Sync - I Drive Myself Crazy
by BnaryFnary@aol.com

I'm not sure how to write in tab format, but i hope all of you can
understand.  Sorry, I only know the tabs for the intro and verses.

INTRO
|------0---------0-----------------------------6-5-0------6-5--
|----2---------0-----------3--------0--------3----------3------
|--2-----2---1-----1-----2---2----1---1----2----------2--------
|----------------------4--------2------------------------------
|--------------------------------------------------------------
|--------------------------------------------------------------

VERSE 1
|--------------------------------------------------------------
|--------3----------2-------------------2----------------------
|------4----------2-----------1-------2------------------------
|----4----------2-----------2-------2--------------------------
|--2----------------------2-------0----------------------------
|------------2----------0--------------------------------------
Lying in your arms, so close together
[ Tab from: http://www.guitartabs.cc/tabs/n/n_sync/drive_myself_crazy_tab.html ]
|--------------------------------------------------------------
|--------3----------2-------------2-0-h-2-h-0------------------
|------4----------2-----------1---------------2-1--------------
|----4----------2-----------2----------------------------------
|--2----------------------2------------------------------------
|------------2----------0--------------------------------------
Didn't know just what I had

|--------------------------------------------------------------
|--------3----------2-------------------2----------------------
|------4----------2-----------1-------2------------------------
|----4----------2-----------2-------2--------------------------
|--2----------------------2-------0----------------------------
|------------2----------0--------------------------------------
Now I toss and turn, cuz I'm without you

|--------------------------------------------------------------
|--------3----------2-------------0----------------------------
|------4----------2-----------1-----1--------------------------
|----4----------2-----------2----------------------------------
|--2----------------------2------------------------------------
|------------2----------0--------------------------------------
How I'm missing you so bad

|--------2------------------------2----------------------------
|------3---3---------4----------3---3---------4----------------
|----2-------------1---1------2-------------1---1--------------
|--0-------------2----------0-------------2--------------------
|--------------2------------------------2----------------------
|--------------------------------------------------------------
Where was my head, where was my heart, now i cry alone in the dark


THAT's ALL I KNOW!



Comments