Myslovitz - Sprzedawcy Marze Chords & Tabs

 

Sprzedawcy Marze Chords & Tabs

Myslovitz Chords & Tabs

Version: 1 Type: Tab 0 ratings
1 star 2 stars 3 stars 4 stars 5 stars
comments

Sprzedawcy Marze Tab

   
    SPRZEDAWCY MARZEÑ - Myslovitz
    album: "Korova Milky Bar" (2002)


transcripted by Teddy
teddypeak@wp.pl


INTRO: 
E--------------------------------------------------------
H--------------------------------------------------------
G-11-11-11--11--11-11-12--12--11-11-11--11---------------
D-9--9--12--12--9--9--12--12--9--9--12--12-11-11-12-12---
A------------------------------------------9--9--10-10---
E--------------------------------------------------------
  Bm    D       Bm    G       Bm    D      F#m   G


RIFF A: (x1) 
E--------------------------------------------------------
H--------------------------------------------------------
G------11---------11--------11---------------------------
D-9-12-------9-12------9-12-----------11----12-11----11--
A--------------------------------9-12----12-------12-----
E--------------------------------------------------------


Bm     D             Bm            G
Jaki piêkny jest ten œwiat, tylko czarne, bia³e
Bm        D              F#m   G
To jest proste, widzê - wiem
Ju¿ tu siedzê jakiœ czas, lubiê du¿o wiedzieæ
I nie wzrusza mnie ju¿ nic

RIFF B:
E------------------------     E-------------------------
H------------10----------     H-------------------------
G------11-------11-------     G-------------------------
D-9-12----12-------12-9-- x3  D------11----12-11----11--
A------------------------     A-9-12----12-------12-----
E------------------------     E-------------------------

[ Tab from: http://www.guitartabs.cc/tabs/m/myslovitz/sprzedawcy_marze_tab.html ]
Ty widzisz we mnie coœ, nie ma idea³u
A mi³oœæ œlepa jest
I chyba nie wiesz, ¿e telewizja k³amie
Nie wszystko mo¿esz mieæ


     G         e           A                C#m
     Nie mogê zrobiæ nic, sterowany jestem wci¹¿
     Nie musisz staraæ siê, przecie¿ jesteœ te¿ jak ja


RIFF B (x2)


Powiedzieæ coœ bym chcia³, mam pustkê w g³owie
Zgubi³em znowu siê
I nie chce mi siê nic, jestem ju¿ zmêczony
To nie by³ dobry dzieñ


     Nie mogê zrobiæ nic, sterowany jestem wci¹¿
     Nie musisz staraæ siê, przecie¿ jesteœ te¿ jak ja
     G        e             A              C#m        G
     Nie mogê zrobiæ nic, sterowany jestem wci¹¿  


E-------------
H-------------
G-------------
D-------------
A--7--12--4---
E-------------

SOLO: (x2)
E--------------------------------------------------------------------
H------------------------------------------------------------10-10---
G--9-9/11--11-11--11-11-11-11-----9-9/11--11-11--11-11-11-11---------
D-----------------------------9-9------------------------------------
A--------------------------------------------------------------------
E--------------------------------------------------------------------
                                                                     
E--------------------------------------------------------------
H--------------------------------------------------------------
G--9-9/11--11-11--11-11-11-11----------------------------------
D-----------------------------9-9--11-11-11-11/12-12-----------
A--------------------------------------------------------------
E--------------------------------------------------------------

OUTRO: (RIFF A) (x2)
Comments