Myslovitz - Peggy Brown Chords & Tabs

 

Peggy Brown Chords & Tabs

Myslovitz Chords & Tabs

Version: 1 Type: Chords 0 ratings
1 star 2 stars 3 stars 4 stars 5 stars
comments

Peggy Brown Chords

   
    PEGGY BROWN - Myslovitz
    album: "Sun Machine" (1996)


transcripted by Teddy
teddypeak@wp.pl


          e              D
  O Peggy Brown, o Peggy Brown
           G                C
  Kto Ciebie ukochaæ bêdzie umia³
  O Peggy Brown, o Peggy Brown
  Kto Ciebie ukochaæ bêdzie umia³

  O Peggy Brown, o Peggy Brown
  Kto Ciebie ukochaæ bêdzie umia³
  O Peggy Brown, o Peggy Brown
  Kto Ciebie ukochaæ bêdzie umia³

Jedyne o czym wci¹¿ myœlê
To ciemnow³osa dziewczyna
Choæ nie chce daæ czego proszê
W oddali od siebie mnie trzyma
Choæ nie chce moich przysi¹g
Nie s³yszy nawet swej dumy, o nie

  O Peggy Brown, o Peggy Brown
  Kto Ciebie ukochaæ bêdzie umia³
  O Peggy Brown, o Peggy Brown
  Kto Ciebie ukochaæ bêdzie umia³

Jej g³os jest dla mnie muzyk¹
Pulsuje jak ciche echo
Jej twarde bia³e piersi
Mleczniejsze s¹ ni¿ jej mleko
Jej suknia z miêkkiej tafty
Dziœ skromnie opuszczona, acha

  O Peggy Brown, o Peggy Brown
  Kto Ciebie ukochaæ bêdzie umia³
  O Peggy Brown, o Peggy Brown
  Kto Ciebie ukochaæ bêdzie umia³

Nocami w samotnoœci
Rozpustny sen widzia³em
¯eœmy w jednym ³ó¿ku
Spojeni cia³o z cia³em
Ale tym snem najœmielszym
Twej dumy nie ura¿ê, o nie
[ Tab from: http://www.guitartabs.cc/tabs/m/myslovitz/peggy_brown_crd.html ]
  O Peggy Brown, o Peggy Brown
  Kto Ciebie ukochaæ bêdzie umia³ 
  O Peggy Brown, o Peggy Brown
  Kto Ciebie ukochaæ bêdzie umia³ 
  O Peggy Brown, o Peggy Brown
  Kto Ciebie ukochaæ bêdzie umia³ 
  O Peggy Brown, o Peggy Brown
  Kto Ciebie ukochaæ bêdzie umia³ 

E|--------------------------------------------------
H|--------------------------------------------------
G|-9-XXX-9-XXX-9-XXX-9-XXX-9-XXX-9-XXX-9-XXX-9-XXX--
D|-9-XXX-9-XXX-9-XXX-9-XXX-9-XXX-9-XXX-9-XXX-9-XXX--
A|-7-XXX-7-XXX-7-XXX-7-XXX-7-XXX-7-XXX-7-XXX-7-XXX--
E|--------------------------------------------------

E|-7-7-7--5-5-5--3-3-3--3-3-3--
H|-8-8-8--7-7-7--3-3-3--5-5-5--
G|-9-9-9--7-7-7--4-4-4--5-5-5--
D|-9-9-9--7-7-7--5-5-5--5-5-5--  (x2)
A|-7-7-7--5-5-5--5-5-5--3-3-3--
E|---------------3-3-3---------    

E|-12--7--12--14--7--14--15--7--12--8--    
H|-------------------------------------
G|-------------------------------------
D|-------------------------------------  (x2)
A|-------------------------------------
E|-------------------------------------


  O Peggy Brown, o Peggy Brown
  Kto Ciebie ukochaæ bêdzie umia³ 
  O Peggy Brown, o Peggy Brown
  Kto Ciebie ukochaæ bêdzie umia³ 
  O Peggy Brown, o Peggy Brown
  Kto Ciebie ukochaæ bêdzie umia³ 
  O Peggy Brown, o Peggy Brown
  Kto Ciebie ukochaæ bêdzie umia³ 
Comments