Myslovitz - Krakow Chords & Tabs

 

Krakow Chords & Tabs

Myslovitz Chords & Tabs

Version: 1 Type: Tab 0 ratings
1 star 2 stars 3 stars 4 stars 5 stars
comments

Krakow Tab

   
  Kraków

Intro:
     
      h                                 G 
E||------0-------0-------0-------0---------0-------0-------0-------0---||
H||--7-------7-------7-------7-----7---8-------8-------8-------8-------||
G||--------------------------------------------------------------------||
D||----9---9---9---9---9---9---9---------9---9---9---9---9---9---9---9-||
A||--------------------------------------------------------------------||
E||--------------------------------------------------------------------||


Zwrotka:

     h                                G
E||--9\7-----9\7-----9\7-----9\7-----9\7-----9\7-----9\7-----------||
H||------7-------7-------7-------7-------8-------8-------8---8\7---||
G||--------7-------7-------7-------7-------7-------7-------7-----9-||
D||----------------------------------------------------------------||
A||----------------------------------------------------------------||
E||----------------------------------------------------------------||


intro x4
[ Tab from: http://www.guitartabs.cc/tabs/m/myslovitz/krakow_tab.html ]
h                              G
Krakow jeszcze nigdy tak jak dzis
h                            G
Nie mial w sobie takiej sily i
h                   G
Moze to ten deszcz, moze przez te mgle
h                       G                              D   Asus4
Moze to moj nastroj, ale w kazdej twarzy ciagle widze cie

W usmiechach turystow rynek tonie znow
Ktos zakrzyknal glosno, blysnal flesz
Na golebiej twoj plaszcz zaczepil mnie
W wystawowym oknie, w autobusie, w tlumie, gdzies


            D         A h      G             D
Ref. Widze cie, tak wiem, nie zrobie wiecej zdjec
         A   G                  D
     Tak wiem, nie bede prosil lecz
         A   h      G              D          A        G
     Tak wiem, to przeciez zaden grzech, tak wiem, tak wiem


intro x2

Krakow hejnal gra, tak wita mnie
Patrzy na mnie jakby wiedzial, ze
Wracam po to by choc na kilka chwil
Zamknac oczy i moc uwierzyc, ze znow...

Ref.


D A h G   | x2
h G       | x4
Comments