Myopic Son - Lesion Chords & Tabs

 

Lesion Chords & Tabs

Myopic Son Chords & Tabs

Version: 1 Type: Tab 0 ratings
1 star 2 stars 3 stars 4 stars 5 stars
comments

Lesion Tab

   
Band:  Myopic Son
Song:  Lesion
Album:  9/26 Demo

Song is in dropped-D tuning, down half a step (C# G# C# F# A# D#)

Verse (Switches between open and palm-muting throughout song)
E ----------------------------------------------------------------------|
B ----------------------------------------------------------------------|
G ----------------------------------------------------------------------|  
D ----------------------------------------------------------------------|    
A ----------------------------------------------------------------------|
D ---0---12---10---0---12---10---0---12---10---0---12---10---5---3------|

E ----------------------------------------------------------------------|
B ----------------------------------------------------------------------|
G ----------------------------------------------------------------------|
D ----------------------------------------------------------------------|
A ----------------------------------------------------------------------|
D ---0---12---10---0---12---10---0---12---10---0---3---5---6---5---3----|


Chorus (Clean first time through)
                    
E ----------------------------------------------------------------|
B --------3-------------------------------------------------------|
G --------2----------5----------12----------10----------12--------|
D --------0----------5----------10----------10----------10--------|
A --------0----------3----------10----------8-----------10--------|
D --------0----------3----------10----------8-----------10--------|


Bridge

E ----------------------------------------------------|
B --------------------------------3-------------------|
G --------10----------12----------2----------5--------|
D --------10----------10----------0----------3--------|
A --------8-----------10----------0----------3--------|
D --------8-----------10----------0----------3--------|
[ Tab from: http://www.guitartabs.cc/tabs/m/myopic_son/lesion_tab.html ]
E --------------------------------------------------------------------------|
B --------------------------------3-----------------------------------------|
G --------10----------12----------2-----------------------------------------|
D --------10----------10----------0----------3---3---X-X---5---3---0--------|
A --------8-----------10----------0----------3---3---X-X---5---3---0--------|
D --------8-----------10----------0----------3---3---X-X---5---3---0--------|

E --------------------------------------------------------------------------|
B --------------------------------------------------------------------------|
G --------3----------5----------7----------10----------10----------12-------|
D --------3----------5----------7----------10----------10----------10-------|
A --------1----------3----------5----------8-----------8-----------10-------|
D -----------------------------------------------------8-----------10-------|

(Palm mute first half and then all out)
E --------------------------------------------------------------|
B --------------------------------------------------------------|
G --------------------------------------------------------------|
D ---0-----0---0-----0---0-----0---0-----0---0-----5---3--------|
A ---0-----0---0-----0---0-----0---0-----0---0-----5---3--------|
D ---0-----0---0-----0---0-----0---0-----0---0-----5---3--------|
       pm |-------------------------------|

E ----------------------------------------------------------|
B ----------------------------------------------------------|
G ----------------------------------------------------------|
D ---0-----0---0-----0---0-----0---0---0---4---5---5--------|
A ---0-----0---0-----0---0-----0---0---0---2---3---3--------|
D ---0-----0---0-----0---0-----0---0---0--------------------|
       pm |-----------------------------|

Verse
Chorus (clean)
Verse
Chorus
Verse
Chorus
Bridge
Chorus
Verse

===================================================================
==                    TABLATURE EXPLANATION                      ==
===================================================================

----------                            ----------
----5h8--- Hammeron                   ----(8)--- Bent Note
----------                            ----------
----5p8--- Pulloff                    ----------

----------                            ----------
----5/8--- Slide Up                   -----x---- Dead Note
----------                            ----------
----5\8--- Slide Down                 ----------

----------                            ||------|| Repeat Start & End
----5~~~-- Vibrato                    ||*----*||
----------                            ||*----*||
----------                            ||------||
Comments