Mymp - When I Dream Chords & Tabs

 

When I Dream Chords & Tabs

Mymp Chords & Tabs

Version: 3 Type: Tab 0 ratings
1 star 2 stars 3 stars 4 stars 5 stars
comments

When I Dream Tab

   
Song title    :     When I Dream
Band/Artist   :     Mymp
Tabbed by     :     angelino cayabyab estandian jr. (a.k.a. ace)
Email         :     acetangent@yahoo.com
contact no    :     09163981421
Date          :     September 3,2005

perfect tab! hehehehe!

another great tab of mine.una ko po itong narinig sa cd ni walter.
and pede po xang gamitin sa panliligaw.jowk.
helo po sa kapatid ko na si ms.DARLENE LACONSAY ng college of nursing sa
saint louis
university,baguio city.para sayo toh!


Tuning: EADGBe (standard)

legend: (*) means tapping

notes:
   1. play along with the cd pra po maisabay nyo ung lyrics and 
      notes.
   2. nilagay ko lng po ung mga pngalan ng chords pero WAG NA WAG PO
      NINYONG GAGAMITAN NG STRUMMING! STRICTLTY FOR PLUCKING LANG
      po ang song nato....request po kasi ni richard
   3. polychords po ang ginamit dito...bass notes po ang vina-vary usually..
      

first intro:
     D              D/F#            D/G
e|---2--*--2---2--*--2--*--2---2--*--2--*--2---2--*--2---------|
B|---3--*--3---3--*--3--*--3---3--*--3--*--3---3--*--3---------|
G|------*---------*-----*---------*-----*---------*-----hold---|
D|---0--*--0-0----*--4--*--4-4----*--5--*--5-5----*--5---------|
A|------*---------*-----*---------*-----*---------*------------|
E|------*---------*-----*---------*-----*---------*------------|

verse1:
     D              C#m             Bm
e|---2--*--2---2--*-----*---------*-----*---------*-----|
B|---3--*--3---3--*--5--*--5---5--*--3--*--3---3--*-----|
G|------*---------*--6--*--6---6--*--4--*--4---4--*-----|
D|---0--*--0-0----*-----*---------*-----*---------*-----|
A|------*---------*--4--*--4-4----*--2--*--2-2----*-----|
E|------*---------*-----*---------*-----*---------*-----|

     G
e|------*---------*----|
B|---3--*--3---3--*----|
G|---0--*--0---0--*----|
D|------*---------*----|
A|------*---------*----|
E|---3--*--3-3----*----|

     D              C#m
e|---2--*--2---2--*-----*---------*----|
B|---3--*--3---3--*--5--*--5---5--*----|
G|------*---------*--6--*--6---6--*----|
D|---0--*--0-0----*-----*---------*----|
A|------*---------*--4--*--4-4----*----|
E|------*---------*-----*---------*----|

    Bm7            Dsus2
e|------*-----0--*-----*----0--*----|
B|---3--*--0-----*--3--*--3----*----|
G|---2--*--2-----*--2--*--2----*----|
D|------*--------*-----*-------*----|
A|---2--*--2-----*--0--*--0----*----|
E|------*--------*-----*-------*----|


verse2:
     D              C#m             Bm
e|---2--*--2---2--*-----*---------*-----*---------*-----|
B|---3--*--3---3--*--5--*--5---5--*--3--*--3---3--*-----|
G|------*---------*--6--*--6---6--*--4--*--4---4--*-----|
D|---0--*--0-0----*-----*---------*-----*---------*-----|
A|------*---------*--4--*--4-4----*--2--*--2-2----*-----|
E|------*---------*-----*---------*-----*---------*-----|

     G
e|------*---------*----|
B|---3--*--3---3--*----|
G|---0--*--0---0--*----|
D|------*---------*----|
A|------*---------*----|
E|---3--*--3-3----*----|
[ Tab from: http://www.guitartabs.cc/tabs/m/mymp/when_i_dream_tab_ver_3.html ]
     D              C#m
e|---2--*--2---2--*-----*---------*----|
B|---3--*--3---3--*--5--*--5---5--*----|
G|------*---------*--6--*--6---6--*----|
D|---0--*--0-0----*-----*---------*----|
A|------*---------*--4--*--4-4----*----|
E|------*---------*-----*---------*----|


    Bm7            Dsus2          A
e|------*-----0--*-----*----0--*----------|
B|---3--*--0-----*--3--*--3----*--2-------|
G|---2--*--2-----*--2--*--2----*--2-hold--|
D|------*--------*-----*-------*----------|
A|---2--*--2-----*--0--*--0----*--0-------|
E|------*--------*-----*-------*----------|


chorus:
     D             D/F#             D/G
e|---2--*--2---2--*--2--*--2---2--*--2--*--2---2--*----|
B|---3--*--3---3--*--3--*--3---3--*--3--*--3---3--*----|
G|------*---------*-----*---------*-----*---------*----|
D|---0--*--0-0----*--4--*--4-4----*--5--*--5-5----*----|
A|------*---------*-----*---------*-----*---------*----|
E|------*---------*-----*---------*-----*---------*----|

   Dsus2                               Asus-A    
e|-----0--*-----0--*-----0--*-----0--*---------*-------|
B|---3----*---3----*---3----*---3----*---3--2--*-------|
G|---2----*---2----*---2----*---2----*---2--0--*-------|
D|--------*--------*--------*--------*---------*-------|
A|---0----*---0----*---0----*---0----*---0--0--*-------|
E|--------*--------*--------*--------*---------*-------|

              D             Asus-A
e|---------*--2--*--2---2--*-------3--*------|
B|---2--2--*--3--*--3---3--*--3--2----*------|
G|---0--0--*-----*---------*--2--2----*------|
D|---------*--0--*--0-0----*----------*------|
A|---0-----*-----*---------*--0--0----*------|
E|---------*-----*---------*----------*------|

     D              D/F#            D/G 
e|---2--*--2---2--*--2--*--2---2--*--2--*--2---2--*----|
B|---3--*--3---3--*--3--*--3---3--*--3--*--3---3--*----|
G|------*---------*-----*---------*-----*---------*----|
D|---0--*--0-0----*--4--*--4-4----*--5--*--5-5----*----|
A|------*---------*-----*---------*-----*---------*----|
E|------*---------*-----*---------*-----*---------*----|

    Dsus2                                A 
e|---0--*----0----*--------*-----0--*----------------|
B|---3--*--3---3--*--3--3--*--3-----*----2-----------|
G|------*---------*--------*--------*------hold------|
D|------*---------*--------*--------*----------------|
A|---0--*--0------*--0-----*--0-----*----0-----------|
E|------*---------*--------*--------*----------------|

second intro:
     D              D/F#                               G
e|---2--*--2---2--*--2--*--2---2--*--0----*---------*-----3---------|
B|---3--*--3---3--*--3--*--3---3--*-------*--3--3---*--3------------|
G|------*---------*-----*---------*----2--*--2--2---*--0-----hold---|
D|---0--*--0-0----*-----*---------*-------*---------*---------------|
A|------*---------*-----*---------*-------*---------*---------------|
E|------*---------*--2--*--2-2----*--3----*--3------*--3------------|

tapos ulitin nyo nlng po ung pattern for the remaining part of the song.



kumpleto na po yan.ung mga susunod po parepareho nlng kaya kayo na po
bahala mag-arrange.salamat po ulit. kung may tanong po kayo,txt nyo po
ako sa 09163981421 or ipadala nyo nlng po sa yahoo mail at acetangent@yahoo.com

pede din po yan sa frndster.
Comments