Mymp - When I Dream Chords & Tabs

 

When I Dream Chords & Tabs

Mymp Chords & Tabs

Version: 2 Type: Tab 0 ratings
1 star 2 stars 3 stars 4 stars 5 stars
comments

When I Dream Tab

   
Song         : When I Dream
Artist       : MYMP
Album        : Beyond Acoustic

Transcribe by: Walter Michael De la Cruz - SLU Baguio City - 09224012464
              (Walterfdelacruz@yahoo.com)

Tabbed       : April 1, 2005

Intro: 
 	D   		F#m		   G
E|--2----2----2---*--2----2----2-----*--2----2----2-----2----------|
B|-----t--------t-*-----t---------t--*-----t---------t-------------|
G|-----a--------a-*-----a---------a--*-----a---------a-------------|
D|-----p--------p-*-----p---------p--*-----p---------p-------------|
A|--0----0--0-----*------------------*-----------------------------|
E|----------------*--2----2--2-------*--3----3--3-------3----------|

Verse 1:

E|--2----2--------2-------------------------------------------------|
B|----t----------------t----5--t--5------5--t-----------------------|
G|----a----------------a-------a------------a-----------------------|
D|----p----------------p-------p------------p-----------------------|
A|--0----0---0--------------4-----4---4-----------------------------|
E|------------------------------------------------------------------|
         I could build  a  mansion


E|------------------------------------------------------------------|
B|-----------3--t-3----3-t------------3--t--3----3--t---------------|
G|--------------a--------a---------------a----------a---------------|
D|--------------p--------p---------------p----------p---------------|
A|-----------2----2--2----------------0-----0--0--------------------|
E|------------------------------------------------------------------|
    that is hig - her        than the trees


E|--2----2--------2-------------------------------------------------|
B|----t----------------t----5--t--5------5--t-----------------------|
G|----a----------------a-------a------------a-----------------------|
D|----p----------------p-------p------------p-----------------------|
A|--0----0---0--------------4-----4---4-----------------------------|
E|------------------------------------------------------------------|
         I could have all the gifts I want
  
E|------------------------------------------------------------------|
B|------3--t-----3----3--t---3-t-3----3---t-------------------------|
G|---------a-------------a-----a----------a-------------------------|
D|---------p-------------p-----p----------p-------------------------|
A|------2--------------------0---0--0-------------------------------|
E|---------------0--0-----------------------------------------------|
    And  never    ask 	please


E|--2----2--------2-------------------------------------------------|
B|----t----------------t----5--t--5------5--t-----------------------|
G|----a----------------a-------a------------a-----------------------|
D|----p----------------p-------p------------p-----------------------|
A|--0----0---0--------------4-----4---4-----------------------------|
E|------------------------------------------------------------------|
         I could fly to     paris

[ Tab from: http://www.guitartabs.cc/tabs/m/mymp/when_i_dream_tab_ver_2.html ]
E|------------------------------------------------------------------|
B|-----------3--t-3----3-t------------3--t--3----3--t---------------|
G|--------------a--------a---------------a----------a---------------|
D|--------------p--------p---------------p----------p---------------|
A|-----------2----2--2----------------0-----0--0--------------------|
E|------------------------------------------------------------------|
         Its at my beck     and       calls


E|--2----2--------2-------------------------------------------------|
B|----t----------------t----5--t--5------5--t-----------------------|
G|----a----------------a-------a------------a-----------------------|
D|----p----------------p-------p------------p-----------------------|
A|--0----0---0--------------4-----4---4-----------------------------|
E|------------------------------------------------------------------|
         Why do I live my life alone 


E|--------------------------------------0---------------------------|
B|---------3-t-3---3-t-------3--t--2-------t---2--------------------|
G|-----------a-------a----------a----------a------------------------|
D|-----------p-------p----------p----------p------------------------|
A|---------2-----------------0-----0--0--------0--------------------|
E|-------------0-0--------------------------------------------------|
      With nothing   at     all
   
Chorus:

	D   		F#m		   G
   E|------2----2----2---*--2----2----2-----*--2----2----2----0-------0----|
   B|---------t--------t-*-----t---------t--*-----t---------t---t-3-----t--|
   G|---------a--------a-*-----a---------a--*-----a---------a---a-------a--|
   D|---------p--------p-*-----p---------p--*-----p---------p---p-------p--|
   A|------0----0--0-----*------------------*------------------------------|
   E|--------------------*--2----2--2-------*--3----3--3------3---3-3------|

But when I d------r-----e------a----------m,   I dream of you


E|------------3------------------------------------------------------|
B|-3--t-3--------t---3---t---3------3--t-----------------------------|
G|----a----------a-------a-------------A-----------------------------|
D|----p----------p-------p-------------p-----------------------------|
A|-------------------0-------0---0-----------------------------------|
E|-0----0--0---------------------------------------------------------|
  Maybe              someday you will come true

	D   		F#m		   G
   E|------2----2----2---*--2----2----2-----*--2----2----2----0-------0----|
   B|---------t--------t-*-----t---------t--*-----t---------t---t-3-----t--|
   G|---------a--------a-*-----a---------a--*-----a---------a---a-------a--|
   D|---------p--------p-*-----p---------p--*-----p---------p---p-------p--|
   A|------0----0--0-----*------------------*------------------------------|
   E|--------------------*--2----2--2-------*--3----3--3------3---3-3------|

But when I d------r-----e------a----------m,   I dream of you



E|------------3------------------------------------------------------|
B|-3--t-3--------t---3---t---3------3--t-----------------------------|
G|----a----------a-------a-------------A-----------------------------|
D|----p----------p-------p-------------p-----------------------------|
A|-------------------0-------0---0-----------------------------------|
E|-0----0--0---------------------------------------------------------|
  Maybe              someday you will come true


Verse 2: The same with verse 1

I can be the singer
Or the clown in any room
I can call up someone
To take me to the moon
I can put my make up on
And drive the man insane
I can go to bed alone
And never know his name.


Suggestions,questions?? send me a message in friendster at Walterfdelacruz@yahoo.com or you 
text me or call me at 09224012464..
Comments