Mymp - Waiting In Vain Chords & Tabs

 

Waiting In Vain Chords & Tabs

Mymp Chords & Tabs

Version: 6 Type: Tab 0 ratings
1 star 2 stars 3 stars 4 stars 5 stars
comments

Waiting In Vain Tab

   
INTRO

      C#                                  F#
  ---------------4-----------------4--------------------------------|
B ---------4-----------------4-------6--------4----6-4-------4---6--|
A ------------------6------6----------------6----------6---6--------|
R --------------------6-------------------4-4----4-------4-4---4----|
1 ----4--4----4---------4--4----4-----------------------------------|
  ------------------------------------------------------------------|


      C#                                  F#
  ------4---------4-------------------4---------------------------------|
B ---------4---------4----------4-------------4---6-4-------4----6-4----|
A ------------------------------------------6---------6---6----------6--|
R ------------6---------6-----------------4-4---4-------4-4----4--------|
2 ----4-4-----4------------4-4-----4------------------------------------|
  ----------------------------------------------------------------------|

STANZA 1

   C#                                       F#
  -------------4-------------------4----------------------------------------|
B -------4-------------------4-------------------4---6-4---------4----6-4---|
A ---------------6--------------------6--------6---------6----6-----------6-|
R -----------------6--------------------6---4--4---4-------4--4----4--------|
3 --4--4----4--------4----4-----4-------------------------------------------|
  --------------------------------------------------------------------------|

(***Take note that the lyrics are not aligned with the notes***)
    From the very first time I rest my eyes on you boy
    My heart said follow through.
    But I know, now that I'm way down on your line
    But the waiting feeling's fine
    So don't treat me like a puppet on a string
    'Cause I know how to do my thing
    Don't talk to me as if you think I'm dumb
    I wanna know when you're gonna come -you see


REFRAIN

   C#                                       F#
  -------------4-------------------4----------------------------------------|
B -------4-------------------4-------------------4---6-4---------4----6-4---|
A ---------------6--------------------6--------6---------6----6-----------6-|
R -----------------6--------------------6---4--4---4-------4--4----4--------|
3 --4--4----4--------4----4-----4-------------------------------------------|
  --------------------------------------------------------------------------|

    I don't wanna wait in                   vain for your love;
    I don't wanna wait in                   vain for your love;
    I don't wanna wait in                   vain for your love;


(Strumming not included)
   C#                          F#
  -------------4----------4----2--|
B -------4----------------6----2--|
A ---------------6--------6----3--|
R -----------------6------6----4--|
3 --4--4----4--------4----4----4--|
a -----------------------------2--|
I don't wanna wait in         vain for your love,

CHORUS (Strumming not included)

            F#          G#          Fm                Ebm
  ----------2------------4-----------8-----------------6-----|
B ----------2------------4-----------9-----------------7-----|
A ----------3------------5----------10-----------------8-----|
R ----------4------------6----------10-----------------8-----|
4 ----------4------------6-----------8-----------------6-----|
  ----------2------------4-----------------------------------|
'Cause if summer is    here,        I'm still waiting there;
            Winter is  here,    And I'm still waiting there.


GUITAR SOLO  (The rhythm for the guitar solo is shown in Fig.1)
[ Tab from: http://www.guitartabs.cc/tabs/m/mymp/waiting_in_vain_tab_ver_6.html ]
      C#          F#             C#         F#
  -----4-4-4-4-----9--9--9--9----4-4-4-4-----9--9--9--9--|
F -----6-6-6-6----11-11-11-11----6-6-6-6----11-11-11-11--|
I -----6-6-6-6----11-11-11-11----6-6-6-6----11-11-11-11--|
G -------------------------------------------------------|
1 -------------------------------------------------------|
  -------------------------------------------------------|
       ^ ^ ^ ^     ^  ^  ^  ^    ^ ^ ^ ^     ^  ^  ^  ^
       ^ ^ ^ ^     ^  ^  ^  ^    ^ ^ ^ ^     ^  ^  ^  ^
       ^ ^ ^ ^     ^  ^  ^  ^    ^ ^ ^ ^     ^  ^  ^  ^


  C#     F#                       C#                             F#
  ---------------------------------------------------------------11B-11~~~--9----9-9--|
S --9-9---------------------------9-11-9-11-9------9-11-9-11-9-9--------------11------|
O -------8B-8-6---6--------8-/-10--------------10-------------------------------------|
L --------------8---------------------------------------------------------------------|
O ------------------------------------------------------------------------------------|
  ------------------------------------------------------------------------------------|


      C#            F#
  -----4-4-4-4------2-2-2-2----|
F -----6-6-6-6------2-2-2-2----|
I -----6-6-6-6------3-3-3-3----|
G -----------------------------|
2 -----------------------------|
  -----------------------------|
       ^ ^ ^ ^      ^ ^ ^ ^
       ^ ^ ^ ^      ^ ^ ^ ^
       ^ ^ ^ ^      ^ ^ ^ ^


STANZA 2 (Refer to Fig.2)

F#
Like I said:
C#                               F#
 It's been three years since I'm knockin' on your door,
C#                          F#
 And I still can knock some more:
C#                 F#
 Ooh boy, ooh boy, is it crazy love?
                 C#                    F#
 I wanna know now, for I to knock some more.
       C#                F#
 Ya see, in life I know there is lots of grief,
C#                     F#
 But your love is my relief:
C#                       F#
 Tears in my eyes burn - tears in my eyes burn
           C#                                 F#
 While I'm waiting - while I'm waiting for my turn,
 Ya see!


REFRAIN (Refer to Fig.2)

C#                     F#
 I don't wanna wait in vain for your love;
C#                     F#
 I don't wanna wait in vain for your love;
C#                       F#
 I don't wanna wait --in vain for your love;
C#                       F#
 I don't wanna wait --in vain for your love;

DO CHORUS
GUITAR SOLO 2 (Refer to Fig. 2 For the rhythm section)

  C#      F#              C#                     F#
  ----------------------------------------------------------------11B-11~~~-|
S ----9B-----------------------------9----9-11-9-11~~~-9-----9-9------------|
O ----------8B-8-6-6---------8-/-10----10----------------10-----------------|
L -------------------8--8---------------------------------------------------|
O --------------------------------------------------------------------------|
  --------------------------------------------------------------------------|

(Refer to Fig.2)
    C#         F#
 No, I , no I, I don't wanna wait in vain
    C#         F#
 No, I , no I, I don't wanna wait in vain
             C#       F#
 No, no - no I, no I, I don't wanna wait in vain
           C#
 It's your love that I'm waiting on
          F#
 It's my love that you're running from.
            C#
 It's your love that I'm waiting on
         F#
 It's my love that you're running from.

DO REFRAIN

ENDING

      C#            F#M7
  -----4-4-4-4------1-----|
F -----6-6-6-6------2-----|
I -----6-6-6-6------3-----|
G ------------------4-----|
4 ------------------------|
  ------------------------|
Comments