Mymp - Waiting In Vain Chords & Tabs

 

Waiting In Vain Chords & Tabs

Mymp Chords & Tabs

Version: 4 Type: Tab 0 ratings
1 star 2 stars 3 stars 4 stars 5 stars
comments

Waiting In Vain Tab

"Waiting in vain"
artist: M.Y.M.P
submitted by:Al Kent Aldiano
you can e-mail me at:evil_1600@yahoo.com
for your comments and sugestions

you can use Capo!!
mas masarap pakinggan!!

Intro/Verse:

E---------2----|
B-----2-----2--|
G---4---4------|  2x
D--------------|
A-2continuous--|
E--------------|
[ Tab from: http://www.guitartabs.cc/tabs/m/mymp/waiting_in_vain_tab_ver_4.html ]
E-------------|
B--------4----|
G----4------4-|
D--2---2------|  2x
A-------------|
E-------------|
Refrain:

E--0---2---6---4---|
B--0---2---7---5---|
G--1---3---6---4---|  2x
D--2---4---8---6---|
A--2---4---6---4---|
E--0---2-----------|

Chorus:

E---------5----|
B-----5-----5--|
G---7---7------|  2x
D--------------|
A-5continuous--|
E--------------|

E-------------|
B--------7----|
G----7------7-|
D--5---5------| 2x
A-------------|
E-------------|


=====Enjoy====
Peace Me Out!!!
Comments