Mymp - Waiting In Vain Chords & Tabs

 

Waiting In Vain Chords & Tabs

Mymp Chords & Tabs

Version: 2 Type: Tab 0 ratings
1 star 2 stars 3 stars 4 stars 5 stars
comments

Waiting In Vain Tab

WAITING IN VAIN
MYMP

johnsantos_17@yahoo.com

Standard Tuning	(EADGBE)
Capo on 2nd fret

Intro/Verse:

E---------2----|
B-----2-----2--|
G---4---4------|play 2x
D--------------|
A-2continuous--
E--------------

E-------------|
B--------4----|
G----4------4-|
D--2---2------|play 2x
A-------------|
E-------------|

Chorus:
[ Tab from: http://www.guitartabs.cc/tabs/m/mymp/waiting_in_vain_tab_ver_2.html ]
E----------------------------|
B-----4----4---4---4---------|
G---4-----4---4---4----------|
D----------------------------|
A-2-----2----2---2-----------|
E----------------------------|

E----------------------------|
B----------------------------|
G----4---4----4---4----------|
D---2---2----2---2-----------|
A----------------------------|
E-0----0----0---0------------|


Refrain:

E--0---2---6---4---|
B--0---2---7---5---|
G--1---3---6---4---|play 2x
D--2---4---8---6---|
A--2---4---6---4---|
E--0---2-----------|

=====w&_17=====
Comments