Mymp - True Colors Chords & Tabs

 

True Colors Chords & Tabs

Mymp Chords & Tabs

Version: 1 Type: Tab 1 rating
1 star 2 stars 3 stars 4 stars 5 stars
comments

True Colors Tab

i've noticed that nobody gave guitar tabs of this song of MYMP,so i listened to the song many times and arrived at these tabs
just listen to the song and the timing! i'm not yet sure with these tabs...


tunning: Standard (EADGBe)
intro:
e|-3-----3-3-----3-|3---------------|3-----3-3-----3-|
B|---0-1-----0-1---|--0-1-------0-1-|--0-1-----0-1---|
G|-----------------|------2---------|----------------|
D|-----------------|----------------|----------------|
A|-0-----0-2-----2-|3---------------|0-----0-2-----2-|
E|-----------------|------1---1-----|----------------|


verse:
   "you with...
e|3---------------|
B|--0-1-----------|
G|------2---------|
D|----------------|
A|3---------------|
E|------1---------|


e|-0-------3-------|0-1-3-3-----0---|3-----1-----0---|0---------------|
B|-1-------3-------|1-----1-------1-|--------------3-|1-----3---------|
G|-2-------4-------|0-----0---0-----|----------------|------0---------|
D|-----------------|----------------|----------------|----------------|
A|-0-------2-------|3---------------|----------------|0---------------|
E|-----------------|------0-------0-|1---------------|------3---------|
[ Tab from: http://www.guitartabs.cc/tabs/m/mymp/true_colors_tab.html ]
                                                      "But i see...
e|-0-----0-1-------|------5-----3---|0---------------|----------------|
B|-----1-------3-6-|8---5-6---------|1-----3---------|3-------1-------|
G|---0-------2-----|--5---5---------|2-----4---------|----------------|
D|---------0-------|----------------|------5---------|3-------2-------|
A|-3---------------|7-----8---------|----------------|3-------3-------|
E|-----------------|----------------|----------------|----------------|

Chorus:

"true colors..."
e|1-----0---------|3-----3---------|1-----0---------|1-----3-----3---|
B|1-----1---------|1---1-0-----0-3-|1-----1-------1-|1---1-1-----0---|
G|2---2-0-----0---|--0-------0-----|2---2-0-----0---|--2-------0-----|
D|--3-------2-----|----------------|--3-------2-----|----------------|
A|------3-------3-|----------------|----------------|----------------|
E|1---------------|3-----3---------|1-----0---------|1-----3-----3---|

e|----------------|----------------|----------------|----------------|
B|--3-1-1---------|--3-1-1---------|----------------|----1-----------|
G|2---2-0-----0---|2-----2---------|--0---0---------|--2---0---------|
D|--3-------2-----|3---------------|3-----2-------2-|3-----2---------|
A|------3-------3-|------0---------|3-----3---------|3-----3---------|
E|1---------------|1---------------|----------------|----------------|

e|3---------------|
B|3---------------|
G|5---------------|
D|----------------|
A|----------------|
E|3---------------|

repeat intro
2nd verse (do verse tabs)
chorus
and so on...

any comments?suggestions?clarifications? feel free to make constructive criticism, to ask or to make comment.
just e-mail me at melanieopea2002@yahoo.com or melanieopea2002@lycos.com
Comments