Mymp - Tibok Ng Puso Chords & Tabs

 

Tibok Ng Puso Chords & Tabs

Mymp Chords & Tabs

Version: 2 Type: Tab 0 ratings
1 star 2 stars 3 stars 4 stars 5 stars
comments

Tibok Ng Puso Tab

Tibok ng Puso
MYMP
Transcribed by: Walter Michael De la Cruz - SLU Baguio City - 09224012464


standard tuning: (EADGBE)
____________________________________________________________________________

E-2---4---2-2---4---2-|--------------------|
B----------------------|--4---5--4-4---5---|
G----------------------|-------------------|
D-2-2---2---2-2---2---|--------------------|
A----------------------|-------------------|
E----------------------|--5-5--5---5-5-----|

Verse 1
[ Tab from: http://www.guitartabs.cc/tabs/m/mymp/tibok_ng_puso_tab_ver_2.html ]
Kung sinabi mo noon....
E-2---4--2-2---4--2-|---7---7-|----4-----4-----0------2------2--------|
B--------------------|----------|--5----5--------------------2-2------|
G--------------------|--4---4--|--------------2------2-----4----4-----|
D-2-2--2---2-2--2---|---------|--------------------------4-------4----|
A--------------------|-6---6---|-4---4------0-----------2-------------|
E--------------------|---------|-------------------2------------------|

REFRAIN: Ngunit d nagkatotoo

E-4--4-----2-------------------------------|
B-5--4--0--2-------------------------------|
G-4--4--2--4-|   (2X)   then C#m7- C-C#m7--|repeat refrain
D-6--4--2--4-------------------------------|
A-4--6--0--2-------------------------------|
E----4-------------------------------------|


Verse 2: do verse 1 tab


Last Chorus: 1 FRET higher

Comments,questions,?? send me a message in friendster at Walterfdelacruz@yahoo.com
Comments