Mymp - Tell Me Where It Hurts Chords & Tabs

 

Tell Me Where It Hurts Chords & Tabs

Mymp Chords & Tabs

Version: 7 Type: Tab 0 ratings
1 star 2 stars 3 stars 4 stars 5 stars
comments

Tell Me Where It Hurts Tab

   
Tell Me Where It Hurts
M.Y.M.P

created by:

_____Julian Vasquez_____


Hello poh! 1st of all gus2 kong batiin ang chumy ko, yeng2...labshu poh!!!
another song po para sa mo, sana magustuhan mo.i hope so! kc favoite mo 2 dba?
2ND TYM poh naming gumawa ng tab and we are sure n acc. 98% po iyan!!! 

thank you:
c jason c budoy!
mariposa strings, gumanda 2nog ng gitara ko!
salamt din sa pc nila budoy, dun me gumawa ng tabs eh!
thank you kila budoy, sarap ng merienda sa inyo, punta uli ako!


>>>>>>>>>>I LoVe YoU eVeLYN<<<<<<<<<<
      (pede pa kizz sa ano mo?)

WARNING:
* 4 greater sound, pakinggan or sabayan ung tugtog para maferpect nyo po...
*NO CAPO


G- 300233  
Em-0x5432 or 0x5433
C9-x32033 or x35533
D- x55555
Bb-x11133
D/F#-2x023x
Intro:
 

e|---------------------------------------------------10-----------|
B|---8/10-10-10-10-10-8-8/10-10/12-12---8/10-10-10-8----8-8/10----|
G|-7----------------------------------7-------------------------7-|
D|----------------------------------------------------------------|
A|----------------------------------------------------------------|
E|----------------------------------------------------------------|


VERSE 1:
     G                                         C9
e-----------------------------------------------------------------------|
B----3---T---3--3--T--3---T----3---3--T---3---T---3--3-----3--T--3--3---|
G----2---A---2--2--A--2---A----2---2--A---0---A---0--0-----0--A--0--0---|
D--------P---------P------P-----------P---2---P---2--2-----2--P--2--2---|
A-----------------------------------------3-------3--3-----3-----3--3---|
E----3-------3--3-----3--------3---3--------------------3---------------|
     Why is that sad look in your eyes..     ...Tell me now, tell me now


     G                              
e---------------------------------------------|
B----3---T----3--3--T--3---T----3---3----T----|
G----2---A----2--2--A--2---A----2---2----A----|
D--------P----------P------P-------------P----|
A---------------------------------------------|
E----3--------3--3-----3--------3---3---------|
     I hate to see you so down, oh baby!


     C9       Em                     C9      Em  Bb         
e----------3-----2-----------------------3-------3------3----------|
B----3-----3--3-----3--3--T--3--3----3---3---3---3---T--3----------|
G----0-----0--0-----0--0--A--0--0----0---0---0-------A-------------|
D----2--------------------P----------2---------------P-------------|
A----3-----------------------------0-3-----------1------1----------|
E-------------0-----0--0-----0--0------------0---------------------|
     Is it your heart..                      ...Is there anything that I can do
 

CHORUS 1:


    G             G           D/F#    Em                    Em                     
e---3-----3---3---3-----3--3-------------2--------2----3-----3----|         
B---3--T--3---3---3--T--3--3---3------3--3--T---3---3--3--3-----3-|         
G---2--A--2---2---2--A--2--2---2------0-----A---0------0----------|         
D------P-------------P----------------------P---------------------|        
A-----------------------------------------------------------------|       
E---3-----3-----0-3-----3------2------0---------0------0----------|         
   Why don't you tell..     ...And I'll do my best to make it better       



   C9                      D
e-------3----------3-------5-----5--5-|         
B----3--3---T---3--3--T----5--T--5--5-|         
G----5------A---5-----A----5--A--5--5-|         
D-----------P---------P-------P-------|        
A--0-3----------3----------5-----5----|       
E-------------------------------------|
Yes, I'll do my best      ...the tears all go away.

[ Tab from: http://www.guitartabs.cc/tabs/m/mymp/tell_me_where_it_hurts_tab_ver_7.html ]
    G             G           D/F#    Em                    Em                     
e---3-----3---3---3-----3--3-------------2--------2----3-----3----|         
B---3--T--3---3---3--T--3--3---3------3--3--T---3---3--3--3-----3-|         
G---2--A--2---2---2--A--2--2---2------0-----A---0------0----------|         
D------P-------------P----------------------P---------------------|        
A-----------------------------------------------------------------|       
E---3-----3-----0-3-----3------2------0---------0------0----------|         
   Just tell me...          ...And I love you with a love so tender      



   C9         
e-------3----------3-------5-----5--5-|         
B----3--3---T---3--3--T----5--T--5--5-|         
G----5------A---5-----A----5--A--5--5-|         
D-----------P---------P-------P-------|        
A--0-3----------3----------5-----5----|       
E-------------------------------------|
Oh and if you let me stay I'll love all of the hurt away     



INTRO:

E-----------------------------------------------------------------|
B------8/10-10-10-10-10-8-8/10-10/12------------------------------|
G----7------------------------------------------------------------|
D-----------------------------------------------------------------|
A-----------------------------------------------------------------|
E-----------------------------------------------------------------|


VERSE 2:
(DO AS VERSE 1)

CHORUS 2:
(DO AS CHORUS 1)


ADLIB:

E-----8-8-8---8-6-8-6-8-8s10-8-6--8--10--6---8--10--6------8-8-8--|
B--6--------6-----------------------------------------------------|
G---------------------------------5---7--3---5---7--3---5---------|
D-----------------------------------------------------------------|
A-----------------------------------------------------------------|
E-----------------------------------------------------------------|

E---10---6--------------------------------------------------------|
B---------------------------------4/6b----------------------------|
G---7----3-------5-5-5---5-3-5-7----------------------------------|
D-------------3--------3------------------------------------------|
A-----------------------------------------------------------------|
E-----------------------------------------------------------------|


BRIDGE:

     C9       Em                     C9      Em  Bb         
e----------3-----2-----------------------3-------3------3----------|
B----3-----3--3-----3--3--T--3--3----3---3---3---3---T--3----------|
G----0-----0--0-----0--0--A--0--0----0---0---0-------A-------------|
D----2--------------------P----------2---------------P-------------|
A----3-----------------------------0-3-----------1------1----------|
E-------------0-----0--0-----0--0------------0---------------------|
     Is it your heart..                  ...Is there anything that I can do


CHORUS 3
(DO AS CHORUS 2)


AFTER CHORUS.. INSTRUMENTAL
    
    G   D/F#   Em                   C9        C9      D
E---3----------2--------2-----2-----3---3-----3---3---5------------|
B---3---3------3--T--3--3--3-----3--3---3--T--3---3---5------------|
G---2---2------0--A--0-----0--------5------A--5-------5------------|
D-----------------P------------------------P-----------------------|
A-----------------------------------3---------3-------5------------|
E---3---2------0-----0-----0---------------------------------------|
                tell me...          Is there anything that i can do babe    
                                  
CHORUS 4
(DO AS CHORUS 2)


OUTRO:

e|---------------------------------------------------10-----------|
B|---8/10-10-10-10-10-8-8/10-10/12-12---8/10-10-10-8----8-8/10----|
G|-7----------------------------------7-------------------------7-|
D|----------------------------------------------------------------|
A|----------------------------------------------------------------|
E|----------------------------------------------------------------|


4 SUGGESTION, OR COMMENTS... zhn_chan3@yahoo.com lng po ang inyong lingkod...tnx!!!
Comments