Mymp - Tell Me Where It Hurts Chords & Tabs

 

Tell Me Where It Hurts Chords & Tabs

Mymp Chords & Tabs

Version: 4 Type: Tab 0 ratings
1 star 2 stars 3 stars 4 stars 5 stars
comments

Tell Me Where It Hurts Tab

E|------------------------------------------------------------------|
A|------------------------------------------------------------------|
D|------------------------------------------------------------------|
G|-----------------------------8------------------------------------|
B|-----9s12-12-12-10-12-14------------------------------------------|
E|------------------------------------------------------------------|


[ Tab from: http://www.guitartabs.cc/tabs/m/mymp/tell_me_where_it_hurts_tab_ver_4.html ]
E|------------------------------------------------------------------|
A|------------------------------------------------------------------|
D|------------------------------------------------------------------|
G|-----------------------------8---------------------8--------------|
B|-----9s12-12-12-10----------------10------------------------------|
E|-------------------11------------------13-------------------------|


thisis my frist time to submit a tab.. just try to understand it...
thanx! peace out!
Comments