Mymp - Tell Me Where It Hurts Chords & Tabs

 

Tell Me Where It Hurts Chords & Tabs

Mymp Chords & Tabs

Version: 3 Type: Tab 0 ratings
1 star 2 stars 3 stars 4 stars 5 stars
comments

Tell Me Where It Hurts Tab

   
try nio toh..
mas handy...
standard lang ung tuning...
Intro:

E|----------------------------------------9h11----------------------|
B|--4s11-11-11-9-11s1313----4s11-11-11-9-------9-------------------|
G|------------------------------------------------------------------|
D|------------------------------------------------------------------|
A|------------------------------------------------------------------|
E|------------------------------------------------------------------|

tap after intro then pasok G 
Chords used:

       G                  Em5                C9              D
 |-----3-----|        |----3-----|       |----3----|     |---2----|
 |-----3-----|        |----3-----|       |----3----|     |---3----|
 |-----4-----|        |----0-----|       |----0----|     |---2----|
 |-----5-----|        |----2-----|       |----2----|     |---0----|
 |-----5-----|        |----2-----|       |----3----|     |---X----|
 |-----3-----|        |----0-----|       |----0----|     |---X----|

Verse 1

G
Why is that sad look in your eyes
Why are you crying?

Em5
Tell me now, tell me now
Tell me, why you're feelin' this way

G
I hate to see you so down, oh baby!

C9
Is it your heart
           D
Oh, that's breakin' all in pieces

C9
Makin' you cry

D
Makin' you feel blue
                E tap
Is there anything that I can do

CHORUS:
 	      G
Why don't you tell me where it hurts now, baby
         Em5
And I'll do my best to make it better
          C9 		     
Yes, I'll do my best to make the tears all go away
          G
Just tell me where it hurts
Now, tell me
[ Tab from: http://www.guitartabs.cc/tabs/m/mymp/tell_me_where_it_hurts_tab_ver_3.html ]
           Em5
And I love you with a love so tender
          C9
Oh and if you let me stay
                   E
I'll love all of the hurt away

E|-----------------------------------|
B|--4s11-11-11-9-11s1313------------|
G|-----------------------------------|
D|-----------------------------------|
A|-----------------------------------|
E|-----------------------------------|

Verse 2: Do verse 1 chords (G-Em5-C9-D-C9-D-E)

Where are all those tears coming from
Why are they falling?
somebody, somebody, somebody leave your heart in the cold
You just need somebody to hold on, baby
(Give me a chance)
To put back all the pieces
Take hold of your heart
Make it just like new
There's so many things that I can do

Is it your heart
Oh, that's breakin' all in pieces
Makin' you cry
Makin' you feel blue
Is there anything that I can do

CHORUS: do the same chords in the first chorus... (G-Em5-C9-)
TULOY TULOY LANG... HANGGANG END...

Tell me, tell me, tell me, tell me baby
Tell me, tell me, tell me, tell me
And I'll do my best to make it better
Yes, I'll do my best to make the tears all go away
Just tell me where it hurts
Now, tell me
And I love you with a love so tender
Oh, and if you let me stay
I'll love all of the hurt away


ULITIN NIO UNG INTRO PARA SA ENDING
E|----------------------------------------9h11----------------------|
B|--4s11-11-11-9-11s1313----4s11-11-11-9-------9-------------------|
G|------------------------------------------------------------------|
D|------------------------------------------------------------------|
A|------------------------------------------------------------------|
E|------------------------------------------------------------------|


THANK YOU...
FRANK...
SIMPLENG MAMAYAN NG PILIPNAS..
SPECIAL THANKS TO IAN MEGUISO...
Comments