Mymp - Sakay Chords & Tabs

 

Sakay Chords & Tabs

Mymp Chords & Tabs

Version: 1 Type: Tab 0 ratings
1 star 2 stars 3 stars 4 stars 5 stars
comments

Sakay Tab

Sakay
Mymp

Tabbed by: kenjie_032004@yahoo.com
Standard tuning

         (strum the whole song)

                 tap                           tap
E -----0-----x-----0----------0-----x-----|
B -----0-----x-----0----------0-----x-----|
G -----4-----x-----4----------1-----x-----|
D -----0-----x-----2----------2-----x-----|
A -----x-----x-----0----------2-----x-----|
E -----x-----x-----x----------0-----x-----|


Solo: intro & every after chorus
E -------------------------------------------------------------------------------------|
B -------------------------------------------------------------------------------------|
G --------------7/9~-----------------------------------7/9-----7~-6~-7~-----7/9--------|
D -----7-6-7-----------7-6-7---------------7-6-7----------------------------------7/9--|
A ----------------------------------7/9------------------------------------------------|
E -------------------------------------------------------------------------------------|

[ Tab from: http://www.guitartabs.cc/tabs/m/mymp/sakay_tab.html ]
Solo: adlib
E -------------------------------------------------------------------------------------------------------|
B -----------------------------------------9-9h10--------------------------------------------------------|
G --------------7/11-----------9~11------------------9/11~----------7/9---7-6-7-------7/9----------------|
D ----7-6-7--------------------------------------------------7-6-7----------------------------------7/9--|
A -------------------------------------------------------------------------------------------------------|
E -------------------------------------------------------------------------------------------------------|


E ---------------------------------------------------------------------------------4h7p4--|
B ----------------------------------------------------------------------------------------|
G --------------------------------------------------------------------4~------------------|
D ----------------------------------------6------4-------------6---------4----------------|
A --------------------x-4-------7-----------------------7---------------------------------|
E ---------------0-------0------0---------------------------------------------------------|


Song ends in this chord
E --------0---------|
B --------0---------|
G --------4---------|
D --------2---------|
A --------0---------|
E --------x---------|
Comments