Mymp - Sa Kanya Chords & Tabs

 

Sa Kanya Chords & Tabs

Mymp Chords & Tabs

Version: 1 Type: Tab 0 ratings
1 star 2 stars 3 stars 4 stars 5 stars
comments

Sa Kanya Tab

tabbed by paolo...
para 'to sa kanya...04/11

capo 1st fret
(relative to capo)
laruin nyo nlng di sakto ung plucking
intro:
x|----------------0----0--------0----------|
x|-0-----5-55--0--0----0--------0----------|
x|-4--2--4-44--2---------------------------|
x|-4--2--2-22--2---------------------------|
x|-------------0---------------------------|
x|-0--2--4-44--------0-5h7p5-0-------------|

x|-------------5--5------------------------|
x|-0-----5-55--5---5--4--2-----------------|
x|-4--2--4-44--7------4--2-----------------|
x|-4--2--2-22--7------4--2-----------------|
x|-------------5------6--4-----------------|
x|-0--2--4-44------------------------------|

verse:
x|--------------------0---------------------|
x|-----0------0---0-----0-------0-----------|
x|-----1------1---2-2-----2----2------------|
x|---1------1-----2-----------2-------------|3x
x|------------------------------------------|
x|-0------0-------0---------0---------------|

x|---------------------------4------------------|
x|-----0------0-------7--4-----4----------------|
x|-----1------1-------6--4-4--------------------|
x|---1------1-------8----6----------------------|
x|----------------6-----------------------------|
x|-0------0--------------4----------------------|

pre-chorus:
x|------------------------------0---------------|
x|-----5-----5-----5----------0---0-------------|
x|-----4-----4-----4-4--------2-----------------|
x|---6-----6-----6-----6----2-------------------|
x|-4-----4-----4----------0---------------------|
x|----------------------------------------------|

x|--------------0---------------0------2----------|
x|-----5----0---0----5---5--0---0--2-----2--------|
x|-----4----2--------4---4--2------2--------------|
x|---2------2--------2---2--2------2--------------|
x|--------------------------0------2--------------|
x|-4--------2--------4---4------------------------|
[ Tab from: http://www.guitartabs.cc/tabs/m/mymp/sa_kanya_tab.html ]
chorus:
x|----0------0---------0-----2----------------|
x|-0--0---0--0-0--0--0-0--2--2-2--------------|
x|-1------2----2--2--2----2----2--------------|
x|-2------2----2--2-------2----2--------------|2x
x|--------0---------------2-------------------|
x|-0--------------2---------------------------|

x|--------0--------------5----5-------------|
x|-----0----0----5--5-5--5------5---4-------|
x|-----2---------4--4-4--7--7-------4-------|
x|---2---------2--------------------4-------|
x|-0---------------------5----------6-------|
x|------------4-----------------------------|

x|-------0-------------------0-----2---------|
x|-----0---0------5--------0----2--2---------|
x|-----2----------4-4------2----2------------|
x|---2----------2--------2------2------------|
x|-0----------------------------2------------|
x|------------4--------2---------------------|
tapos intro ulit(lam nyo na kng hanggang saan lng ha!)
tapos verse
tapos pre-chorus
tapos chorus ulet!!

bridge(ewan):strumming 'to
x|--------------------------5---------------------|
x|--2----4------------------5------4---2----------|
x|--2----4------------------6------4---2----------|
x|--2----4(isang strum lng)-7------4---2----------|
x|--4----6------------------7------6---4----------|
x|--2----4------------------5---------------------|
chorus ulet(bhala n kyo mag ulet2)

outro(ewan din)
x|-----0------0-----0------0-------------------|
x|--------0------------0-----------------------|
x|---2------2-----2------2---------------------|
x|-0------------0------------------------------|
x|---------------------------------------------|
x|---------------------------------------------|

x|-----0------0------0------0------------------|
x|--------0-------------0----------------------|
x|---2------2------2------2--------------------|
x|---------------------------------------------|
x|-4------------4------------------------------|
x|---------------------------------------------|
miss na kita...
Comments