Mymp - Love Moves Chords & Tabs

 

Love Moves Chords & Tabs

Mymp Chords & Tabs

Version: 5 Type: Tab 0 ratings
1 star 2 stars 3 stars 4 stars 5 stars
comments

Love Moves Tab

   

LOVE MOVES:> by:#MYMP
                #TABS  
                #Capo on 1ST FRET
              
 ######C JULIAN VASQUEZ PO ITO!!! 14 YRS OLD LNG######

.....etong song na'to dedicated para sa taong inspirasyon ko! c cHuMy03(wish heart),
syempre sa mga taong umaasa sa kin... i know... etoh na ang tab na promiz ko! tnx din
sa mga staff na bumubuo ng aming crew salamat tlga... cla budoy, c kuya j.c., c anjo,
c putek, c winah, c kay ann... uy my nagcecelos!!! joke lng poh chumy!     
 
 >>>>I LoVe yOu eveLyn!!! yes alam n ng buong pilipinas!!!<<<
                
WARNING:
para ma-ferpect nyo ung kanta kelangan nyo pong pakinggan ng maigi sa cd o sa pc,, 
kc accurate lng po iyan d po yan ferpect... plz... tnx intindihin nyo na lng kc 1st
time ko eh! i'm just 14 yrs old... kaya konting pasensya!!! comments? sa
zhn_chan3@yahoo.com

INTRO:Capo on 1st fret ha! wag makulet!

    G            C9              F
E----------------------------------------0---]
B-------0---1---3-------3--1--0--------1--1--]
G---------------------0-----------0--2-------]
D-------------------2----------------3-------]
A-----2-----------3--------------------------]
E---3----------------------------1-----------]


VERSE 1:


    G     C         F         C     Dm7     G             Gsus-G
E-----------------------0------------------------------TAP-----------------]
B---0-----------1---1---------1-------------0------0---TAP--1--0-----------]
G-------------0-----2---------0-----5----5-------------TAP-----------------]
D-----------2-------------------------7---------0------TAP-----------------]
A---------3-------------------3-----5--------2---------TAP-----------------]
E---3---------------1-----------------------3----------TAP--3--3-----------]
   Who'd have thought..........
 
     C         F     Em   Am7  Dm7       G    Am7         Am7         
E-------------------------------------5----3----0-----TAP---TAP--3---]
B--0-------1---1---1--0----1--------6----0----1----0--TAP-1-TAP--3---]
G--0-----0-----2---2--0----0--------5---------0----0--TAP-0-TAP------]
D------2-------------------2------7-----------2----0--TAP-2-TAP------]
A----3---------------------0----5-------------0----0--TAP-0-TAP------]
E--------------1---1--0------------------3------------TAP---TAP--1---]
   I forgot.......         

                                     
     D    F#m7       B7sus
E----2---------------------TAP-------]
B----3----------------5----TAP-------]
G----2-----2----------0----TAP-------]
D----0-----2----------4----TAP-------]
A---------------0-2--------TAP-------]
E----------2---------------TAP-------]
So blame it on my heart, oh!

CHORUS 1:


     E        B9       AM9            G#m      A9             C     A/B
E--------0----2---2-------0--------0---------------0--------------------2--]
B----0---0----2---2----0-----0------------5----0-----0--------1------2-----]
G----1---1----4--------1-------1------4--------2--------------0------2-----]
D----2-----------------2---------2----4--------2--------------2------2-----]
A----2--------2--------0-----------------------0--------------3------2-----]
E----0--------------------------------4------------------------------------]
Love moves in mysterious ways...

     E        B9       AM9            G#m7     A9       
E--------0----2---2-------0--------0---------------0-------]
B----0---0----2---2----0-----0------------5----0-----0-----]
G----1---1----4--------1-------1------4--------2-----------]
D----2-----------------2---------2----4--------2-----------]
A----2--------2--------0-----------------------0-----------]
E----0--------------------------------4--------------------]
I'll love you for the rest of my days...

      Ddim      C#m7        Am7    Am7         A/B    C#m7        A9
E-------------------4----------0--------TAP--x---2-------4----------0-------]
B--------1---4--5------5----0-------0---TAP--x-2------5-----------0---------]
G------2---2----4---4-------1-------1---TAP--x-2------4------4----2----2----]
D----1----------6-----------2---------2-TAP--x-2------6-----------2------2--]
A---------------4-----------0-------0---TAP--0-2------4------4----0---------]
E---------------------------------------TAP--x------------------------------]
How you ever came to me Which only proves In mysterious ways...

  
      Gsus       G
E---------TAP----------------]
B-----1---TAP----0-----------]
G-----0---TAP----0-----------]
D---------TAP----------------]
A---------TAP----------------]
E-----3---TAP----3-----------]


VERSE 2:


    G     C          F         C        Dm7       G             Gsus-G
E-----------------3------0----------0------------------------TAP------------]
B---0-----------3----1-------------1--------------0------0---TAP--1--0------]
G-------------0------2------------0-----5----5---------------TAP------------]
D-----------2--------------------2--------7------------0-----TAP------------]
A---------3--------------------3--------5-----------2--------TAP------------]
E---3----------------1----------------------------3----------TAP--3--3------]
    Heaven knows Love...            But then love demands a leap of faith...
 
     C          F      Em  Am7     Dm7         G    Am7         Am7        
E------------3-------------------0--5---5------1------0-----TAP---TAP--3----]
B--0-------3----1---1--0----1--1----6-----6----0----1----0--TAP-1-TAP--3----]
G--0-----0------2---2--0----0-------5-5-------------0----0--TAP-0-TAP-------]
D------2--------------------2-------7---------------2----0--TAP-2-TAP-------]
A----3----------------------0-------5---------------0----0--TAP-0-TAP-------]
E---------------1---1--0-----------------------3------------TAP---TAP--1----]
   So hold me close/            'Cause even though we think we know...   

[ Tab from: http://www.guitartabs.cc/tabs/m/mymp/love_moves_tab_ver_5.html ]
    D  F#m7     B7sus
E---2-----------------TAP-------]
B---3---------------5-TAP-------]
G---2---2-------------TAP-------]
D---0---2----------4--TAP-------]
A------------0--2-----TAP-------]
E-------2-------------TAP-------]
It' not the way love goes, no!


CHORUS 2:


     E        B9       AM9            G#m7     A9             C     A/B
E--------0----2---2-------0--------0---------------0--------------------2--]
B----0---0----2---2----0-----0------------5----0-----0--------1------2-----]
G----1---1----4--------1-------1------4--------2--------------0------2-----]
D----2-----------------2---------2----4--------2--------------2------2-----]
A----2--------2--------0-----------------------0--------------3------2-----]
E----0--------------------------------4------------------------------------]
   Love moves in mysterious ways...

     E        B9       AM9            G#m7     A9       
E--------0----2---2-------0--------0---------------0-------]
B----0---0----2---2----0-----0------------5----0-----0-----]
G----1---1----4--------1-------1------4--------2-----------]
D----2-----------------2---------2----4--------2-----------]
A----2--------2--------0-----------------------0-----------]
E----0--------------------------------4--------------------]
     I'll love you for the rest of my days...


      Ddim      C#m7        Am7    Am7         A/B    C#m7        A9
E-------------------4----------0--------TAP--x----2-------4----------0------]
B--------1---4--5------5----0-------0---TAP--x--2------5-----------0--------]
G------2---2----4---4-------1-------1---TAP--x--2------4------4----2----2---]
D----1----------6-----------2---------2-TAP--x--2------6-----------2------2-]
A---------------4-----------0-------0---TAP--0--2------4------4----0--------]
E---------------------------------------TAP--x------------------------------]
How you ever came to me Which only proves In mysterious ways...


ADLIB:



    G            C9              F             
E---------------------------------------0------------]
B-------0---1---3-------3--1--0-----------1----------]
G------0--------------0-----------0--2---------------]
D-------------------2----------------3---------------]
A-----2-----------3----------------------------------]
E---3----------------------------1-------------------]


   C                     Dm7        G
E-------------0------0--------------------------------------------]
B--1---1---3-----3-------6-------------0-----3---1---0------------]
G--0---------------------5----5-----2-----2--------------2---0----]
D--2---------------------7----------------------------------------]
A--3---------------------5----------------------------------------]
E-----------------------------------3-----------------------------]


BRIDGE:

      
      C9         F    Bb9          Ebdim     Dm7     G      C9      Dsus
E-----3----3----------1---1--1------------------5-------3-----3-------3---]
B-----3----------1----1------1-----------2---6-------3------3---3-----3---]
G-----0----------2----3------3--------3------5-------3------0---0-----0---]
D-----2----------------------------2---------7--------------2---2---------]
A-----3---------------1------1---------------5--------------3---3-----5---]
E----------------1-----------------------------------3--------------------]
    Like the ticking of the clock/   But I'll never understand....
 
CHORUS 3:


    G        D         Am7          Bm7       C9          D#   D7sus
E-------3----5-----5----------0------------2-----------------------5-------]
B-------3----5----------1------------3--------3-----------4----8------8----]
G---0---0----7---7------0---0----0---2---2----0-----0-----0----5---------5-]
D---0-------------------2------2-----4--------2---2-------5----5-----------]
A---2--------5----------0------------2--------3-----------6----5-----------]
E---3----------------------------------------------------------------------]
     Love moves in mysterious ways...

      G        D          Am7         Bm7       C9  Ddim          Em 
E---------3----5-----5----------0------------2------------------------------]
B---------3----5----------1------------3--------3-------4----7----3-------3-]
G-----0---0----7---7------0---0----0---2---2----0-----5---5-------4---4-----]
D-----0-------------------2------2-----4--------2---4-----------------------]
A-----2--------5----------0------------2--------3---------------------------]
E-----3-----------------------------------------------------------0---------]
      I'll love you for the rest of my days/        How you ever came to me...

      Am7       Bm7         C9     C/D
E------------0----------2-------------5---5---------------------------------]
B-----1----------3----------3--------5-------5------------------------------]
G-----0---0------2---2------0-------5-----------5---------------------------]
D-----2----------4----------2------5----------------------------------------]
A-----0----------2----------3-----5-----------------------------------------]
E---------------------------------------------------------------------------]
      Which only proves Love moves In mysterious ways...

OUTRO:


    G                C9              F             F          G
E-------------------------------------------0--------------------------0----]
B---0------0---1---3-------3--1--0-------1----1----1----------------0----0--]
G---0--0-----------------0-----------0--2----------2--------------2--------2]
D----------------------2----------------3----------3------------0-----------]
A--------------------3-----------------------------3------------------------]
E---3--------------------------------1-------------1----------3-------------]

ung dulo poh harmonics... means hayaan lng ung string wag didiinan! sa     12th fret. 

COMMENTS:
Para sa mga kumento o suhesyon,,  maaari pOng  tumawag sa aming (hotline) sa numerong 333, 
o makipag ugnayan sa aming opisina, dyan sa my zoO!JOKE!!! d ung true sa zhn_chan3@yahoo.com

SA MGA FANS: 
OH AYAN NABATI KO N KAYO MGA PESTE,, AKO NAMAN BATIIN NYO!!!!!!!
Comments