Mymp - Kailan Chords & Tabs

 

Kailan Chords & Tabs

Mymp Chords & Tabs

Version: 1 Type: Tab 2 ratings
1 star 2 stars 3 stars 4 stars 5 stars
comments

Kailan Tab

   
Song         : Kailan
Artist       : MYMP
Album        : Beyond Acoustic

Transcribe by: Walter Michael De la Cruz - SLU Baguio City - 09224012464
              (Walterfdelacruz@yahoo.com)

Tabbed       : April 1, 2005

Note:   Im sure Guys, This is Correct. Napanood ko nun MRS gumamit c Chin ng Capo sa
1st fret. So, tRy it dude. asteeg ung revive nla dito.


-CAPO ON 1ST FRET-

Intro:

        BbM7        Bb/C          Am          Dm7      C
E|-1-----1------0-----0------0------0-----------1-------0--|
B|-----3---3-t------1---1-t--1----1---1--t------1-------1--|
G|---2-------a----0-------a--2--2--------a----2------0--0--|
D|-----------p------------p--2-----------p--0--------------|
A|-1------------1------------0---------------------3-------|
E|---------------------------------------------------------|

     BbM7          Em           D        A7
E|---------1---------0-------------0-----0------X--------|
B|-------3---t-----0---0--t------3---3---2---t--X--------|
G|-----2-----a------------a--------------0---a--3--------|
D|---3-------p------------p---0----------2---p--3--------|
A|-1-------------------------------------0------1--------|
E|--------------0----------------------------------------|


Verse 1:

       F                     F
E|--------0-*--------------------0-------------------------|
B|----------*----------------------------------------------|
G|----------*----------------------------------------------|
D|------3---*-----------------3----------------------------|
A|----3-----*---------------3------------------------------|
E|--1-------*-------------1--------------------------------|
             Bakit kaya nangangamba

         F/BbM7 				F
E|-----------*---------------------------------------------|
B|---------3-*--------------------------1------t-----------|
G|-------2---*------------------------2--------a-----------|
D|-----3-----*----------------------3----------p-----------|
A|-----------*--------------------3------------------------|
E|--1--------*------------------1--------------------------|
              Sa tuwing ika'y nakikita


        Dm7		C	    Fm         BbM7
E|-------1-*-------------0-*-----1--*------1--------1-------|
B|-----1---*-------------1-*-----1--*-----3-3------3-3------|
G|---2-----*----------0--0-*-----1--*----2---2----2---2-----|
D|-0-------*---------------*--------*---3--------3----------|
A|---------*--------3------*---3----*--1--------1-----------|
E|---------*---------------*--1-----*-----------------------|
             Sana nama'y magpakilala


     Gm                  Gm
E|---------------------------------------------------------|
B|---------3----------------3------------------------------|
G|-------3---3------------3---3----------------------------|
D|-----5-------5--------5-------5--------------------------|
A|---5----------------5------------------------------------|
E|-3----------------3--------------------------------------|
  Ilang ulit nang nagkabangga


       Gm               Gm
E|---------------------------------------------------------|
B|---------3----------------3------------------------------|
G|-------3---3------------3---3----------------------------|
D|-----5-------5--------5-------5--------------------------|
A|---5----------------5------------------------------------|
E|-3----------------3--------------------------------------|
   Aklat kong dala'y pinulot mo pa

            C               C            F
E|------------------------------*------------------------|
B|--------3---------------3-----*-------1----------------|
G|------5---5-----------5---5---*---------2--------------|
D|----5-------5-------5-------5-*-----3-----3------------|
A|--3-----------3---3-----------*---3--------------------|
E|------------------------------*-1----------------------|
         Di ka pa rin nagpakilala

[ Tab from: http://www.guitartabs.cc/tabs/m/mymp/kailan_tab.html ]
Refrain:
           BbM7         C                  Am
E|-----------1---*-------0--------*--------------0-------|
B|---------3--3--*-----1---0------*----------1-----------|
G|--------2----2-*---0------------*--------2---2---------|
D|-------3-------*----------------*------2---------------|
A|------1--------*-3--------------*----0-----------------|
E|---------------*----------------*----------------------|
  Bawat araw sinusundan      Di ka naman  tumiti- 
 
      Dm7      C	 BbM7        Em       D     A7
E|----2-*------0--*---------1--*-------0--*-----0----0--|
B|----2-*------1--*-------3----*-----0--0-*---3---3--2--|
G|--1---*---0--0--*-----2------*----------*----------0--|
D|-0----*---------*---3--------*----------*-0--------2--|
A|------*-3-------*-1----------*----------*----------0--|
E|------*---------*------------*---0------*-------------|
  Ngin    anung    aking          dapat          gawin


Verse 2: (The same in verse 1)


Bakit kaya umiiwas
Binti ko ba'y mayroong gasgas
Nais ko nang magpakilala


Dito'y meron sa puso ko
Munting puwang laan sayo
Maaari na ba'ng magpakilala

REfrain

Refrain:
           BbM7         C                  Am
E|-----------1---*-------0--------*--------------0-------|
B|---------2--3--*-----1---0------*----------1-----------|
G|--------2----2-*---0------------*--------2---2---------|
D|-------3-------*----------------*------2---------------|
A|------1--------*-3--------------*----0-----------------|
E|---------------*----------------*----------------------|
  Bawat araw sinusundan      Di ka naman  tumiti- 
 
      Dm7      C	 BbM7        Em        D     A7
E|----2-*------0--*---------1--*-------0--*-----0----0--|
B|----2-*------1--*-------3----*-----0--0-*---3---3--2--|
G|--1---*---0--0--*-----2------*----------*----------0--|
D|-0----*---------*---3--------*----------*-0--------2--|
A|------*-3-------*-1----------*----------*----------0--|
E|------*---------*------------*---0------*-------------|
  Ngin    anung    aking          dapat          gawin

Chorus:
        
       Dm7            G                           C
E|-------2---*---------3-------------*--------------0------|
B|-----2---2-*-----------3-----------*------------1---1----|
G|---1-------*------0----------------*----------0----------|
D|-0---------*----0------------------*---------------------|
A|-----------*-----------------------*--------3------------|
E|-----------*--3--------------------*---------------------|
     Kailan- - - -  - -           kailan mo ba mapapansin

           F           BbM7    C        Am   Am     Dm7
E|--------------1--*----1----------------------------2-----|
B|------------1----*----3-------1-------1-----1------2-----|
G|-----------------*----2-------0-------2-----2------1-----|
D|----------3------*----3---------------2-----2------0-----|
A|--------3--------*----1-------3-------0-----0------------|
E|------1----------*---------------------------------------|
   Ang aking lihim    Kahit   anung   gawing lam  - bing


      BbM7         A7

E|-----------1-----0-----------------------------------------|
B|---------3-------2-----------------------------------------|
G|-------2---------0-----------------------------------------|
D|-----3-----------2-----------------------------------------|
A|---1-------------0-----------------------------------------|
E|-----------------------------------------------------------|
     Di mo napapansin


E|-------2---*---------3-------------*--------------0------|
B|-----2---2-*-----------3-----------*------------1---1----|
G|---1-------*------0----------------*----------0----------|
D|-0---------*----0------------------*---------------------|
A|-----------*-----------------------*--------3------------|
E|-----------*--3--------------------*---------------------|
  Kailan------             kailan hahaplusin ang pusong


E|--------------1--*----1----------------------------2-----|
B|------------1----*----3-------1-------1-----1------2-----|
G|-----------------*----2-------0-------2-----2------1-----|
D|----------3------*----3---------------2-----2------0-----|
A|--------3--------*----1-------3-------0-----0------------|
E|------1----------*---------------------------------------|
bitin na bitin      Kahit anong  gawing  lam - bing


E|-----------1-----0-----------------------------------------|
B|---------3-------2-----------------------------------------|
G|-------2---------0-----------------------------------------|
D|-----3-----------2-----------------------------------------|
A|---1-------------0-----------------------------------------|
E|-----------------------------------------------------------|
     Di mo napapansin


-adlib-

Verse2 last part
Refrain
Chorus

That's All Folks.. Enjoy.

Comments,questions?? send me a message in friendster at Walterfdelacruz@yahoo.com or you 
text me or call me at 09224012464
Comments