Mymp - I Miss You Chords & Tabs

 

I Miss You Chords & Tabs

Mymp Chords & Tabs

Version: 2 Type: Tab 0 ratings
1 star 2 stars 3 stars 4 stars 5 stars
comments

I Miss You Tab

   
I miss u
MYMP
tab by: Walter Michael de la Cruz - Baguio City -
           (Walterfdelacruz@yahoo.com)

This is one of my favorite song from MYMP. Ang Ganda ng duet. Pag npknggan u
tlgng maiinlove ka. Kantahin u 2 sa mga namimiss nyo sa buhay 
lalo n ung minamahl nyo. MYMP RULZ! in Baguio city. I think my tab is accurat
 but diskarte nyo n ung iba kung may mali sa tingin nyo??


Intro:  Miss u...miss u.....hah...hah...hah

           FM7 (2x)              FM7 (2x)            D#m7           G#m              C#           
e|------------------*---------------*----------------*-----4--*------4----4----4|
B|-------9h11---9--*------8h9---8--*-----6h7-6---6-*---4--4-*----4--4------4--|
G|----10-----------*----8----------*----6-----------*---------*-----------------|
D|--11-------------*--10-----------*--8-------------*---------*-----------------|
A|-9----------9----*-8---------8---*-6----------6---*---------*--4-----4-4-----|
E|-----------------*----------------*----------------*-4-------*----------------|


Verse 1:
                  
E|-----4---------3--------8------------------------------|
B|---4---4--t----3---t----9---t--------------------------|
G|----------a----5---a----8---a--------------------------|
D|----------p----5---p---10---p--------------------------|
A|-4------------3-------8--------------------------------|
E|-------------------------------------------------------|

  every day and every night this feeling i fight
[ Tab from: http://www.guitartabs.cc/tabs/m/mymp/i_miss_you_tab_ver_2.html ]
E|-----6-------------4--------------------------------------|
B|---6---6--t-----4-----4---t-------------------------------|
G|----------a---------------a-------------------------------|
D|----------p---------------p-------------------------------|
A|----------------------------------------------------------|
E|--6----------4--------------------------------------------|

     try as i might but i wont win

E|------2------------8--------------------------------------|
B|----2---2--t-----9---9--t---------------------------------|
G|-----------a------------a---------------------------------|
D|-----------p------------p---------------------------------|
A|---------------8------------------------------------------|
E|--2-------------------------------------------------------|

    i           surrender   i  die 
 
E|------6-----------4------4---4----------------------------|
B|----7---7--t----4---4------4---t--------------------------|
G|-----------a-------------------a--------------------------|
D|-----------p-------------------p--------------------------|
A|--6-------------------------------------------------------|
E|--------------4-------4--4--------------------------------|

    you are willing here     all     night


Verse2:( Do verse 1 chords)
every mornin' when the sun would shine on me
i flesh yoursmile but deep inside
i feel so sad and lonely
i need u here and now

chorus:( Do verse 1 chords)
i miss you.....(i miss u)
its crazy to pretend that i dont think of u
the more this feeling
just seems to grow and grow
i miss you (i miss u)
oh how much longer can i hold on to
maybe u can come and tell me that u miss me 2


Verse 3:( Do verse 1 chords)
all i wnted for this love to last 4ever
you walk away never came back
oh i try to recover i get buried girl alryt


Verse 4:( Do verse 1 chords)
when i hear the song that we had use to share
i try as i might to hide the tears
and when the pain its over i wish that u r near.



Comments,questions,?? send me a message in friendster at Walterfdelacruz@yahoo.com
Comments