Mymp - Get Me Chords & Tabs

 

Get Me Chords & Tabs

Mymp Chords & Tabs

Version: 1 Type: Tab 0 ratings
1 star 2 stars 3 stars 4 stars 5 stars
comments

Get Me Tab

Here's the intro/main riff for Get Me by Mymp

e----6---6--x--7--7---------------|
B----7---7--x--7--7---------------|
G----6---6--x--6--6---------------|
D---------------------------------|
A---------------------------------|
E---------------------------------|

e----6---6--x--7--7---------------|
B----7---7--x--7--7---------------|
G----6---6--x--6--6---------------|
D---------------------------------|
A---------------------------------|
E---------------------------------|

e----6---6--x--7--7--x--6---------|
B----7---7--x--7--7--x--7---------|
G----6---6--x--6--6--x--6---------|
D---------------------------------|
A---------------------------------|
E---------------------------------|

or babaan mo konti :p

[ Tab from: http://www.guitartabs.cc/tabs/m/mymp/get_me_tab.html ]
e----5---5--x--6--6---------------|
B----6---6--x--6--6---------------|
G----5---5--x--5--5---------------|
D---------------------------------|
A---------------------------------|
E---------------------------------|

e----5---5--x--6--6---------------|
B----6---6--x--6--6---------------|
G----5---5--x--5--5---------------|
D---------------------------------|
A---------------------------------|
E---------------------------------|

e----5---5--x--6--6---------------|
B----6---6--x--6--6---------------|
G----5---5--x--5--5---------------|
D---------------------------------|
A---------------------------------|
E---------------------------------|

e----5---5--x--6--6--x--5---------|
B----6---6--x--6--6--x------------|
G----5---5--x--5--5--x--5---------|
D---------------------------------|
A---------------------------------|
E---------------------------------|

i'm a little bit not sure about this.. because the mymp
guy used a capo in the video eh.. maybe its just a sustained D
with a capo in the 3rd or 4th fret. :]

Tabbed by Raffy Ronquillo
questions? msg me in friendster

15/05/05
sa simbahan
Comments