Mymp - Eternal Flame Chords & Tabs

 

Eternal Flame Chords & Tabs

Mymp Chords & Tabs

Version: 5 Type: Tab 0 ratings
1 star 2 stars 3 stars 4 stars 5 stars
comments

Eternal Flame Tab

   
Song Title:	Eternal Flame
Artist:		MYMP
Transcribed By: K. Arceo -=Splinter=-


INTRO

    Gsus4   G       Gsus4
e|------------------------------------------------|
B|--3---3---3---3---3---3---3----5p3--------------|
G|--5---5---4---4---5---5---4--------4/-----------|
D|----5---5---5---5---5---5-----------------------|
A|------------------------------------------------|
E|------------------------------------------------|


VERSE

    G       Em      C       D
e|----------------------3-------------------------|
B|--3---3---3---3---3-------3---3-----------------|
G|----0-------0-------0-------0-------------------|
D|------------------------------------------------|
A|------------------3-------5---------------------|
E|--3-------0-------------------------------------|
  Close your eyes...

    G       Em      C       D
e|------------------3---3-------------------------|
B|--3---3---3---3-----------3---3-----------------|
G|----0-------0-------0-------0-------------------|
D|------------------------------------------------|
A|------------------3-------5---------------------|
E|--3-------0-------------------------------------|
  Do you feel...


REFRAIN

   Bm/E       Em7/B      Em7        A7
e|------------0---0-------------------0-----------|
B|-3---3-----------------3---3------2---2---------|
G|--------------0---------------------------------|
D|------------------------------------------------|
A|---2--------2-----2------2--------0-----0-------|
E|-0-----0---------------0-----0------------------|
    Do you feel the same...

   D          Bm         Am7
e|-2---2------2---2----------0--------0-----------|
B|------------3---3--------1--1-----1--1----------|
G|-----------------------------0--------0---------|
D|-0------------4---------2-2---2--2-2---2--------|
A|----------0-2----------0--------0---------------|
E|---------------------0--------------------------|


INTRO 

Gsus4-G-Gsus4-G


VERSE 1

 G          Em7   C9            D 
Close your eyes, give me your hand darlin'

 G      Em7           C9       D
Do you feel my heart beatin'? Do you understand?


REFRAIN

 Bm/E   Em7/B    Bm/E 
Do you feel the same?

 A7        D    Bm7 
Am I only dreaming?

 Am7 
Is this burning, an eternal flame?


VERSE 2

I believe its meant to be darlin'
I watched you when you were sleeping,
you belonged to me

repeat REFRAIN


CHORUS
[ Tab from: http://www.guitartabs.cc/tabs/m/mymp/eternal_flame_tab_ver_5.html ]
 D      Dm 
Say my name

 G                      D    E(Bass)
sun shines through the rain,

    F             G 
a whole life so lonely 

          C        G/B      Am7   C/G
and then come and ease the pain 

D        Bm7             Cadd9      D7sus2
I dont wanna lose this feeling. oh...

SOLO
GUITAR 1 plays REFRAIN

             Bm/E      Em/7              Bm/E
e|------------------------------------------------|
B|------8/10-10/12--12----12/13/12--/10--10/8-----|
G|--7/9-------------------------------------------|
D|------------------------------------------------|
A|------------------------------------------------|
E|------------------------------------------------|

     A7         D      Bm7
e|------------------------------------------------|
B|--10/5--5/7-7/--3----10/5--5/7------------------|
G|------------------------------------------------|
D|------------------------------------------------|
A|------------------------------------------------|
E|------------------------------------------------|

    Am
e|------------------------------------------------|
B|------------------------------------------------|
G|--5/7/5-4-4/5---0-----5/7/5-4-4/5---0-----------|
D|------------------------------------------------|
A|------------------------------------------------|
E|------------------------------------------------|

repeat CHORUS
repeat VERSE
repeat REFRAIN
repeat VERSE
repeat REFRAIN

OUTRO

    G       Em      C                   Gmaj7
e|-------------------3-------3-----------2--------|
B|--3------3----3--------3-----3---------3--------|
G|----0-------0--------0---------0-------0--------|
D|------0--------------------------0-----0--------|
A|-------------------3-----3-------------x--------|
E|--3------0-------3---------------------3--------|




CHORD FINGERINGS

  Gsus4   G    Em7   C9   D  Bm7/E Em7/B
e|--3----3-3----0----3----2----2----0---|
B|--3----3-3----3----3----3----3----3---|
G|--5----4-0----0----0----2----2----0---|
D|--5----5-0----2----2----0----4----2---|
A|--5----5-x----2----3---------2----2---|
E|--3----3-3----0--------------0--------|

    A7  Bm7  Am7   F   G/B  C/G  D7sus2
e|--0----2----0----1----3----0----5-----|
B|--2----3----1----1----3----1----5-----|
G|--0----2----0----2----0----0----5-----|
D|--2----4----2----3----0----2----7-----|
A|--0----2----0----3----2----3----5-----|
E|-----------------1---------3----------|
Comments