Mymp - Eternal Flame Chords & Tabs

 

Eternal Flame Chords & Tabs

Mymp Chords & Tabs

Version: 2 Type: Tab 0 ratings
1 star 2 stars 3 stars 4 stars 5 stars
comments

Eternal Flame Tab

   
Song         : Eternal Flame
Artist       : MYMP
Album        : Behind Acoustics

Transcribe by: Walter Michael De la Cruz - SLU Baguio City - 09224012464
              (Walterfdelacruz@yahoo.com)

Tabbed       : March 1, 2005

Note         : You may use Plucking or strumming whatever you like

Intro: G-C-G-C

E|-------------*------------*-----------*------------------|
B|--3-----3----*--3-----3---*--3----3---*--35p3-----------|
G|-------------*------------*-----------*--------4---------|
D|-----5-----5-*-----5----5-*-----5---5-*------------------|
A|-------------*--3---------*-----------*--3---------------|
E|--3----------*------------*--3--------*------------------|

Verse1:
   G           Em           C	     D
E|--------*----------*---------------*---------3--------|
B|-3---3--*---3---3--*-3-----3-------*---3-------0------|
G|--------*----------*---------------*------------------|
D|---5--5-*-----5--5-*----5----5-----*------------------|
A|--------*----------*-3-------------*---5--5-----------|
E|-3------*---0------*---------------*------------------|
  Close your  eyes,   give me your hand darling.

  G                               Em                             C	                 D
E|--------*----------*-------------------*---------3--------|
B|-3---3--*---3---3--*-----3-----3-------*---3-------0------|
G|--------*----------*-------------------*------------------|
D|---5--5-*-----5--5-*--------5----5-----*------------------|
A|--------*----------*-----3-------------*---5--5-----------|
E|-3------*---0------*-------------------*------------------|
   Do you    feel my heart beating,         do you understand?
[ Tab from: http://www.guitartabs.cc/tabs/m/mymp/eternal_flame_tab_ver_2.html ]
    Em      B7     Em       A7    D    Bm       Am
E|--------*-------*--------*-----------2----------------0--------0--------|
B|---3--3-*--0--0-*--3---3-*-2---2----3-----3---------1---1-----1--1------|
G|--------*-------*--------*---0-----2-----2---------2-----2---2----2-----|
D|--------*----1--*--------*--------0-----4---------2---------2-----------|
A|----2---*--2----*----2---*-0-----------2---------0---------0------------|
E|-0------*-------*--0-----*----------------------------------------------|
    Do you feel the same, am i only dreaming or is this burning an eternal Flame?

Do same as verse 1(use plucking)

G       Em        C              D
I believe it's meant to be darling,

G           Em7          C                      D-Em
I want you when you are sleeping, you belong to me,

                 B7              Em-A7           D       Bm       Am      Am7
Do you feel the same, am i only dreaming or is this burning an eternal Flame?

Chorus

D       Dm    G                      D	-E
Say my name, sun shines through the rain,

	F       G		C                      A7-G
a whole life, so lonely, then you come and ease the pain,

  D               Bm               F    D7
I don't want to loose this feeling oohh

That's it!!! The chords are almost the same to the version of the bangles. The only 
is the Plucking...

Comments,questions?? send me a message in friendster at Walterfdelacruz@yahoo.com or you 
text me or call me at 09224012464
Comments