Mymp - Eternal Flame Chords & Tabs

 

Eternal Flame Chords & Tabs

Mymp Chords & Tabs

Version: 1 Type: Tab 0 ratings
1 star 2 stars 3 stars 4 stars 5 stars
comments

Eternal Flame Tab

   


    Song Title:      Eternal Flame
  Performed By:      M.Y.M.P
From The Album:      Versions
     Tabbed by:      Ralph Ernest De Guzman
                     Colegio San Agustin Southwoods
	             14 Yrs. Old
	             3rd Year Student
         Email:      jnxxx777@yahoo.com
      Cell No.:      09202412886

This Song??? uhm, its nice... pero napilitan lang akong kapain gawa ni karen and axel....
this one is 90% palang... rate nyo poh!!
Tuning: Standard [E-A-D-G-B-E]

intro:(plucked)
e|---------------------------------------------------|
B|---3---3---3---3---3---3---3--5p3------------------|
G|---5---5---4---4---5---5---4------4p0--------------|
D|---0-0---0-0-0---0-0-0---0-0-----------------------|
A|---------------------------------------------------|
E|---------------------------------------------------|


Verse 1:(G - Em - C9 - D) 
e|-----------------3---5-----------------------------|\
B|-----3-----3----3----5-----------------------------| \
G|----0-----0----0-----5-----------------------------|  \ Repeat
D|---------------------5-----------------------------|  / Twice
A|------------2-3------5-----------------------------| /
E|--3---2-0------------5-----------------------------|/
   Close your eyes...

Verse 1 Ref:(Em - B7 - Em - A7 - D - Bm - Am - Am[over G] - Dsus)
e|----0---2---0-----------------------------2--3----------|
B|---0---0---0----2----3--3---1-1--1----1---3--3----------|
G|---------------0----2--2---0--0--0---0------------------|
D|-------------------0----------------------0-0-----------|
A|------2-------0-------2---0---0-0-----------------------|
E|--0------0--------------------------3-------------------|
   Do You Feel The Same???....


Verse 2:(G - Em - C9 - D) 
e|-----------------3---5-----------------------------|\
B|-----3-----3----3----5-----------------------------| \
G|----0-----0----0-----5-----------------------------|  \ Repeat
D|---------------------5-----------------------------|  / Twice
A|------------2-3------5-----------------------------| /
E|--3---2-0------------5-----------------------------|/
   I Believe, It's Meant To....
[ Tab from: http://www.guitartabs.cc/tabs/m/mymp/eternal_flame_tab.html ]
Verse 1 Ref:(Em - B7 - Em - A7 - D - Bm - Am - Am[over G] - Dsus)
e|----0---2---0--------------------------------------------|
B|---0---0---0----2----3--3---1-1--1----1--1--1------------|
G|---------------0----2--2---0--0--0---0---0--0------------|
D|-------------------0-------------------------------------|
A|------2-------0-------2---0---0-0------------------------|
E|--0------0--------------------------3---3--3-------------|
   Do You Feel The Same???....           ...Flame   

Chorus: (D - Dm - G - C9 - F - G - C9 - Bm - Am - D - C9 - D)
e|-2---2---1--1-------3----3-----1----3--3-3-0--0------------------3--3-3-3----5--|
B|-3---3---3--3------3----3-----1----3---3-3-1--1-----3--3--3--3---3--3-3-3----5--|
G|----------------------------------------------------2--2--2--2---------------5--|
D|-0--0--0-0-0---0---------------------------------2--0-0--0--0-0--------------5--|
A|---------------------0-3-------------0-3-2-0-0-------------------3-3-3-3-3---5--|
E|------------------3--------0-1--0-3------------------------------------------5--|
  Say My Name...                                    I don't Want to...        Ohh....

Solo:
e|-------------------------------------------------------------------------|
B|--------8/10---10/12-12~~~12h13p12----------------10\5--5/7-7---10\5--5/7|
G|----7/9----------------------------12/14-14\12----------------7----------|
D|-------------------------------------------------------------------------|
A|-------------------------------------------------------------------------|
E|-------------------------------------------------------------------------|


e|-------------------------------------------------------------------------|
B|-------------------------------------------------------------------------|
G|----5/7p5--4-4/5-0----5/7p5--4-4/5-0-------------------------------------|
D|-------------------------------------------------------------------------|
A|-------------------------------------------------------------------------|
E|-------------------------------------------------------------------------|

Repeat Chorus And Verse...


| /  slide up
| \  slide down
| h  hammer-on
| p  pull-off
| ~  vibrato
| +  harmonic
| x  Mute note
===============================================================================


Pasensya na kung hindi Ganong Ka-accurate ung plucking ha???
Email Nyo Nalang ako Or text para ituro ko sa inyo ung plucking eh...
Paki Rate!!!
Hi sa Mga StudenTs NG C.S.A Southwoods!!! Hi Din Sa 3rd Year Batch 2005-2006!!!
Lalo Na Sa Mga Taga St. Alphonsus!!!
Hi to Karen, Enzo, Aren, Axel, Gerard At Sa Mga Klasmeyts Namin!!!
Hi To Jenna, cindy, D.G.S, Bratinella, TG corps, Masayahin Bisyo Corp...
Hi Din Sa Banda KO!! PressToPlay!!! Nico, Lobitz At Migz!!!!
At Higit Sa Lahat,
Hi Kay Nicole Marie Ocampo!


Questions???? Comments???
Text Me Nalang... 09202412886...
email... jnxxx777@yahoo.com
ASHtEEg?????
Comments