Mymp - Especially For You Chords & Tabs

 

Especially For You Chords & Tabs

Mymp Chords & Tabs

Version: 2 Type: Tab 2 ratings
1 star 2 stars 3 stars 4 stars 5 stars
comments

Especially For You Tab

   
Song: Especially For you
By  : MYMP
Album: Versions
Standard Tuning: Open Em
Transcribed by: Jeramie A. Lim (jeramie16@yahoo.com)


hi guys... i think tama na tong tab na ginawa ko... sana magustuhan nyo.. kung me mga comments kayo or suggestions... pls 

feel free to email me... thank you.

Intro:                   Verse:

                                       F      
E|-----------------------*-------0-----------0-----------|
B|----------3--t--3------*---------1---t--1----1----t----|
G|----------3--a--3------*----------2--a---------2--a----|
D|-------------p-----(3)-*-------------p------------p----|
A|----harm3-3-----3------*-------------------------------|
E|-----------------------*---0---1--------1--------------|
                 Especially for you          

                  Dm                             Bb
E|--------------------------------------*-------3--------3-----------|
B|---------3---3---------3--------3-----*----3-----t--3----3---t-----|
G|-----------------t--------------------*----------a---------3-a-----|
D|-----------------a--------------------*----------p-----------p-----|
A|---------5-------p-----5---5----------*----1--------1--------------|
E|---0-------------------------------0--*----------------------------|
  I wanna let you know what I was going      Through

                        C9
E|------------------------------3--------------------------------------|
B|------------------t------------3---t---------------------------------|
G|-----------5--5---a----5--------3--a---------------------------------|
D|------------------p----------------p---------------------------------|
A|-----------3-----------3---------------------------------------------|
E|---0-----------------------------------------------------------------|
   All the time we were apart I thought of


      F		     Am             Dm7              C            Bb	
E|-----1-----*----------------------5-5---------------------------------|
B|-----1--t--*---------5----t-------6-6-------------------t-------------|
G|-----2--a--*---------5----a-------5-5---------------3---a-------------|
D|-----3--p--*---------7----p-------7-7---------------3---p-------------|
A|-----------*---------7----------6----------------5-------------1------|
E|-0-1-------*---1-5-------------5----------------5-----------0---------|
     You ,        You were in my heart       My love never change

           Bb               C9                  F
E|--1---1-1-----------------------------0-0-------0--------------|
B|----t-----------3------3------------------t--1----1---t--------|
G|--3-a-3-3-------3---t--3------------------a---------2-a--------|
D|----p---------------a----(3)--------------p-----------p--------|
A|----------------3---p--3---------------------------------------|
E|-------------0----------------------0-1------1-----------------|
      I still feel the same     Especially for you


                   Dm                             Bb
E|--------------------------------------*----------------3-----------|
B|---------3---3---------3--------3-----*----3--3--t--3----3---t-----|
G|-----------------t--------------------*----------a---------3-a-----|
D|-----------------a--------------------*----------p-----------p-----|
A|---------5-------p-----5---5----------*----1--------1--------------|
E|------0-------------------------------*--0-------------------------|
  I wanna tell you I was feeling that way    too


                        C9
E|-------------3-----------------3-------------------------------------|
B|------------------t--------------3----------t------------------------|
G|-----------5------a------5------------------a------------------------|
D|------------------p-------------------------p------------------------|
A|-----------3-------------3-------------------------------------------|
E|--------0------------------------------------------------------------|
  And if dreams were wings, you know I have flown to 

      F		     Am             Dm7              C            Bb	
E|-----1-----*----------------------5-5---------------------------------|
B|-----1--t--*---------5----t-------6-6-------------------t-------------|
G|-----2--a--*---------5----a-------5-5---------------3---a-------------|
D|-----3--p--*---------7----p-------7-7---------------3---p-------------|
A|-----------*---------7----------6----------------5-------------1------|
E|-0-1-------*---1-5-------------5----------------5-----------0---------|
   You            to be where  you are            no matter how far


         
E|--------------------------------|
B|--------2-2-t--2----2--t--------|
G|------------a----------a--------|
D|------------p----------p--------|
A|--------1------1--1-------------|
E|------0-------------------------|

   And now that I'm next to you


Refrain: (Listen to the strumming to get the drift... ;) )


             F
E|---------------------------------------------------------------------|
B|---------------------------------------------------------------------|
G|--2---2--2----2-----2----2----2--------------------------------------|
D|--3---3--3----3-----3----3----3--------------------------------------|
A|--3---3--3----3-----3----3----3--------------------------------------|
E|--1---1--1----1-----1----1----1--------------------------------------|
    No more dreaming about tomorrow

[ Tab from: http://www.guitartabs.cc/tabs/m/mymp/especially_for_you_tab_ver_2.html ]
             A7
E|---------------------------------------------------------------------|
B|---------------------------------------------------------------------|
G|---6---6----6-------6-----6-----6---6--------------------------------|
D|---5---5----5-------5-----5-----5---5--------------------------------|
A|---7---7----7-------7-----7-----7---7--------------------------------|
E|---5---5----5-------5-----5-----5---5--------------------------------|
   Forget the loneliness and the sorrow



          Dm7                           Bb
E|---5--5--5---5---5--5--5---5---5--*----------------------------------|
B|---6--6--6---6---6--6--6---6---6--*----------------------------------|
G|---5--5--5---5---5--5--5---5---5--*---7—7---7---7--7--7----7---------|
D|---7--7--7---7---7--7--7---7---7--*---8-8---8---8--8--8----8---------|
A|---5--5--5---5---5--5--5---5---5--*---8-8---8---8--8--8----8---------|
E|----------------------------------*---6-6---6---6--6--6----6---------|
    I've got to say its all because of  you and now we're back  


Chorus: (medyo nakakahilo ang tapping dito pero makukuha nyo rin bastat dapat kabisado nyo ang bit ng song)


      Am          Dm7         Gm         C
E|-------5---------5-------------3------------3-------------------------|
B|-------5-t---------6-t---------3---t----------3-t---------------------|
G|-------5-a-----------a---------3---a------------a---------------------|
D|---------p-----------p-------------p------------p---------------------|
A|--------------5----------------------3-3------------------------------|
E|--0-5---------------------0-3-----------------------------------------|
    Toge -     ther    ,  Toge   -    ther   I wanna   
 


      Am          Dm7                 Gm         C
E|-------------------5---------------------3-----------3----------------|
B|-------5-t----6-----6-t------------------3---t---------3-t------------|
G|-------5-a----5-------a------------------3---a-----------a------------|
D|---------p------------p----------------------p-----------p------------|
A|--------------5---------------------------------3-3-------------------|
E|--0-5-----------------------------0-3---------------------------------|
      Show      you my heart is       oh   so    true  and all the 



      Am          Dm7                 Gm         C
E|-------5---------5------------------------------------------------|
B|-------5-t---------6-t------------------3---t---------1--t-1--1-t-|
G|-------5-a-----------a------------------3---a--5---------a------a-|
D|---------p-----------p----------------------p------------p------p-|
A|------------5-5--------------------------------3------------------|
E|--0-5------------------------------0-3--------------0-1----1-1----|
     Love      I had          is       especially     for you


Verse 2 (tulad lang ng sa itaas...)

E|----------------------0-0-------0--------------|
B|---3--t--3--------------t----1----1---t--------|
G|---3--a--3--------------a-----------2-a--------|
D|------p----(3)----------p-------------p--------|
A|---3-----3-------------------------------------|
E|-0------------------0-1------1-----------------|
         	Especially for you 

I wanna tell you, you mean all the world to me

E|--------------------------------------------------------------|
B|------------------t---------3--------t------------------------|
G|-----------5-5----a------5----5------a------------------------|
D|------------------p------------------p------------------------|
A|-----------3-------------3------------------------------------|
E|--------0-----------------------------------------------------|

How I'm certain that our love was meant to be
You changed my life
You showed me the way
+And now that I'm next to you


Refrain 2:(just like refrain)
ive waited long enough to find you
I wanna put all the hurt behind you Oh,
And I wanna bring out all the love inside you,Oh

Repeat Chorus

Adlib:

E----------------------------------------------------------------------------|
B----------------------------------------------------------------------------|
G---------------------------------------------------------11--13h14-13h12----|
D----12--14--14h15-14-12-14-14h10---------10-12-12--13-12--------------------|
A--12----------------------------------12------------------------------------|
E-----------------------------------10---------------------------------------|

E---------------------------------------------------------|
B---------------------------------------------------------|
G---------------------------------------------------------|
D-8-10p8-10-10---10-12-10-8-8h7---------------------------|
A---------------------------------------------------------|
E---------------------------------------------------------|

repeat refrain
repeat chorus

Ending:
    
     C9     F
E|----------3-------------0-------------------------------------------|
B|--3--t------3----------0--------------------------------------------|
G|--3--a--------5-------3---------------------------------------------|
D|-----p---------------2----------------------------------------------|
A|--3-----3-----------0-----------------------------------------------|
E|-------------------1------------------------------------------------|


yan! tapos na sa wakas! pinagpaguran ko to! gusto kong magpasalamat sa mga known source galing sa UG... thank you sa inyo... 

eto na ang sure tab ng kanta sana magustuhan nyo...
Comments