Mymp - Could Be Wrong Chords & Tabs

 

Could Be Wrong Chords & Tabs

Mymp Chords & Tabs

Version: 2 Type: Tab 0 ratings
1 star 2 stars 3 stars 4 stars 5 stars
comments

Could Be Wrong Tab

COULD BE WRONG
MYMP

johnsantos_17@yahoo.com

Standard Tuning	(EADGBE)

Intro:

E--6h7p6-----------6---|---4h5p4------------4---|
B---------7--------7-7-|----------5---------6-5-|
G-----------8----------|------------6-----------|
D----------------------|------------------------|play 2x
A----------------------|------------------------|
E--7------------7--7---|---5------------5---5---|

Verse:
[ Tab from: http://www.guitartabs.cc/tabs/m/mymp/could_be_wrong_tab_ver_2.html ]
E--2---0------2---0---|
B--4---2------4---2---|
G--3---1------3---1---|
D--4---2------4---2---|
A--2---0------2---0---|
E---------------------|

Chorus:

E--0---2------0---2-----------|
B--0---2------0---2-----------|
G--1---3------1---3-----------|
D--2---4------2---4-----------|
A--2---4------2---4-----------|
E--0---2------0---2-----------|

Bridge:

E--4---2----4---2----4---2------|
B--4---2----4---2----4---2------|
G--4---4----4---4----4---4------|
D--4---4----4---4----4---4------|
A--6---2----6---2----6---2------|
E--4--------4--------4----------|

=====w&_17=====
Comments