Mymp - Cool With You Chords & Tabs

 

Cool With You Chords & Tabs

Mymp Chords & Tabs

Version: 1 Type: Tab 0 ratings
1 star 2 stars 3 stars 4 stars 5 stars
comments

Cool With You Tab

cool w/ you
by:mymp
tabs by:raf_fermin "b2"

note: try listeniong to the song first, this is just the basic tabs or i dunno... as
oweys, just play with the strings. try strumming the bridge part till end. good luck
people!

(intro)
-------------------------------------|
-------7---9---8-------3s4-----------|
---8---6---9---7---8-------6h4----4--|
---9---8-----------9----------6h4----|
---9---6---7-------9-----------------|
---7-----------0---7-----------------|
[ Tab from: http://www.guitartabs.cc/tabs/m/mymp/cool_with_you_tab.html ]
(verse/refrain)
--------------------------6--4------6---6---0-----0--|
-------7---9---------22---7--4------5---7---0-----0--|
---8---6---9---------11---6--4------4---6---1-tap-1--|
---9---8-------(3x)-------8--6------6---8---2-----2--|
---9---6---7---------11---6--6------4---6---2-----2--|
---7-------------------------4--------------0-----0--|

(chorus)
------------------------------------------|
-------7---9-------8-------3s4------------|
---8---6---9-------7---8-------6h4----4---|
---9---8-----(3x)------9----------6h4-----|
---9---6---7-----------9------------------|
---7---------------0---7------------------|
(repeat verse)

(bridge)(strumming)
--4--3--2--1----6--6-----------|
--4--3--2--1----5--7-----------|
--4--3--2--1----4--6-----------|
--6--6--4--4----6--8---(2x)----|
--6--6--4--4----4--6-----------|
--4--3--2--1-------------------|
(chorus till end)
» hope u guys got it.. vote kau ah!! for more request, email me at 
peace out people«

love yu bebe ju, b1&b2 is cute! da bomb hahaha!email moko kundi sapowk! hahaha! joke!
Comments