Mymp - Constantly Chords & Tabs

 

Constantly Chords & Tabs

Mymp Chords & Tabs

Version: 1 Type: Tab 1 rating
1 star 2 stars 3 stars 4 stars 5 stars
comments

Constantly Tab

Constantly - MYMP

standard tuning

tabbed by: jay casanova
cooties


solo part lang po ito, ung mula 2:56 to almost end of song


e-------------------------------------------------------------|
b------------------8-10-10h12------------8--------------------|
g---9/11-11/12-12--------------7-9-9/10----5h7--5h7-5h7-------|
d-------------------------------------------------------------|
a-------------------------------------------------------------|
e-------------------------------------------------------------|

e---------10p7------------------------------------------------|
b-------8-------8h10p8-10-8------------8----------------------|
g---7910---------------------7-9-9/10----5h7--5h7-5h7---------|
d-------------------------------------------------------------|
a-------------------------------------------------------------|
e-------------------------------------------------------------|

e-------------------------------------------------------------|
b-------8-8/11--8-8h10--12h13p12------8-10-11p10-8------------|
g---7-9----------------------------10-------------------------|
d-------------------------------------------------------------|
a-------------------------------------------------------------|
e-------------------------------------------------------------|
[ Tab from: http://www.guitartabs.cc/tabs/m/mymp/constantly_tab.html ]
e-----------------------------------------------------------------------|
b--------------------------5-----------------8-10-10h11p10-10-8-8h10----|
g---7p5-7---5p4-5p4----5/7---5p4-5p4-----7h9----------------------------|
d-------------------5----------------5----------------------------------|
a-----------------------------------------------------------------------|
e-----------------------------------------------------------------------|

e---8--8-8h9-8------------------------------------------------|
b----11--------11--10-8-----8---------------------------------|
g-----------------------7-9---9-7-7h9p7-----------------------|
d---------------------------------------9-7-5-----------------|
a-------------------------------------------------------------|
e-------------------------------------------------------------|


"Constantly..
e-----------------------------------------------------------------------|
b-------5----------------8-10-10h11p10-10-8----13h14p13 4x---12b-12b----|
g---5/7---5p4-5p4----7h9-----------------------12------------12b-12b----|
d-----------------5-----------------------------------------------------|
a-----------------------------------------------------------------------|
e-----------------------------------------------------------------------|

e--------------------10-------------------------------------------|
b---12p10-8h10-10/12---------8-10-10h11p10-10-8-------------------|
g------------------------7h9----------------------7h5-7-----------|
d-----------------------------------------------------------------|
a-----------------------------------------------------------------|
e-----------------------------------------------------------------|

-end-

.i.am.the.unforgiven.
Comments