Mymp - Beauty And Madness Chords & Tabs

 

Beauty And Madness Chords & Tabs

Mymp Chords & Tabs

Version: 1 Type: Tab 0 ratings
1 star 2 stars 3 stars 4 stars 5 stars
comments

Beauty And Madness Tab

   
Song       : Beauty and Madness
Artist     : M.Y.M.P.
Album      : Behind Acoustics
Lenght     : 4:11
Type       : Acoustic Tablature
Tuning     : Standard EADGBe
Ear Tabber : Daniel L. Astillero nadaniel_12@yahoo.com
Tabbed     : March 19, 2005 9:27PM

Intro:                                                                   s
e|--------------------------6----6------------------------------------------|
B|--------6--------6------6----6----6----------6-------6---4----------1--1--|
G|------5--------5---5-----------------------5---5--------------2-2h3----2--|
D|----8--------8-------8-------------------8-------8-----------3---------3--|
A|--5--------5------------6----5----6----5-------------3~~~~--3----------3--|
E|-----------------------------------------------------------1-----------1--|

Verse      :
                                                                         s
e|--------------------------6----6------------------------------------------|
B|--------6--------6------6----6----6----------6-------6---4----------1--1--|
G|------5--------5---5-----------------------5---5--------------2-2h3----2--|
D|----8--------8-------8-------------------8-------8-----------3---------3--|
A|--5--------5------------6----5----6----5-------------3~~~~--3----------3--|
E|-----------------------------------------------------------1-----------1--|
                                                                         s
e|--------------------------6----6------------------------------------------|
B|--------6--------6------6----6----6----------6-------6---4----------1--1--|
G|------5--------5---5-----------------------5---5--------------2-2h3----2--|
D|----8--------8-------8-------------------8-------8-----------3---------3--|
A|--5--------5------------6----5----6----5-------------3~~~~--3----------3--|
E|-----------------------------------------------------------1-----------1--|

Refrain    :

e|----6---6---6------------------'----6---6---------1---------------:
B|--6---6---4----6------------1--'--6---6---6-----3--3--------6---6-:
G|----------------------2h3-2-2--'---------------3-----------5---5--:
D|---------------------3------3--'--------------3-----------8---8---:
A|--6---5---6---------3----------'--6---5---6--1-------1-3-5--------:
E|---------------6---1-----------'----------------------------------:
                                                             s  s             s
e:----6---6---6-----------------1-----'-----1-------------------------------------|
B:--6---6---4----6---------1-----1----'----1-----1--6--6-----6--4------1------1---|
G:-------------------2h3-2---2h3--2---'---3-----3----5---5---5--3-----2-2h3-2-2---|
D:------------------------------------'--1------------8---8--8--5----3--------3---|
A:--6---5---6-------------------------'-------3-----5--------5--3---3---------3---|
E:---------------6---1----------------'----------------------------1----------1---|

Verse      :
[ Tab from: http://www.guitartabs.cc/tabs/m/mymp/beauty_and_madness_tab.html ]
e|--------------------------6----6------------------------------------------|
B|--------6--------6------6----6----6----------6-------6---4----------1--1--|
G|------5--------5---5-----------------------5---5--------------2-2h3----2--|
D|----8--------8-------8-------------------8-------8-----------3---------3--|
A|--5--------5------------6----5----6----5-------------3~~~~--3----------3--|
E|-----------------------------------------------------------1-----------1--|

e|--------------------------6----6------------------------------------------|
B|--------6--------6------6----6----6----------6-------6---4----------1--1--|
G|------5--------5---5-----------------------5---5--------------2-2h3----2--|
D|----8--------8-------8-------------------8-------8-----------3---------3--|
A|--5--------5------------6----5----6----5-------------3~~~~--3----------3--|
E|-----------------------------------------------------------1-----------1--|

Refrain    :

e|----6---6---6------------------'----6---6---------1---------------:
B|--6---6---4----6------------1--'--6---6---6-----3--3--------6---6-:
G|----------------------2h3-2-2--'---------------3-----------5---5--:
D|---------------------3------3--'--------------3-----------8---8---:
A|--6---5---6---------3----------'--6---5---6--1-------1-3-5--------:
E|---------------6---1-----------'----------------------------------:
                                  Adlib Starts Here!-->                           do this part softly...c
e:----6---6---6-----------------1-----'-----1------!-------6------------------------------------------::
B:--6---6---4----6---------1-----1----'----1-----1-!--1-----8------8-----------1-----------------6----::
G:-------------------2h3-2---2h3--2---'---3-----3--!-3-3----------7--7h5------3---------8-------5-----::
D:------------------------------------'--1---------!-------------------------0----8~~---8-8----8------::
A:--6---5---6-------------------------'-------3----!1----6-----6-7----------1-----8~~---6-5-6-5-------::
E:---------------6---1----------------'------------!---------------------1/3------6~~-----------------::

Cont. Adlib :
c...................  s
e::--------------6-1------|
B::-----6-6--6-----1--1---|
G::----3-3------------2---|
D::---3---------------3---|
A::--5-------6-----1--3---|
E::-------------------1---|

Refrain    :

e|----6---6---6------------------'----6---6---------1---------------:
B|--6---6---4----6------------1--'--6---6---6-----3--3--------6---6-:
G|----------------------2h3-2-2--'---------------3-----------5---5--:
D|---------------------3------3--'--------------3-----------8---8---:
A|--6---5---6---------3----------'--6---5---6--1-------1-3-5--------:
E|---------------6---1-----------'----------------------------------:
                                                             s  s             s
e:----6---6---6-----------------1-----'-----1-------------------------------------|
B:--6---6---4----6---------1-----1----'----1-----1--6--6-----6--4------1------1---|
G:-------------------2h3-2---2h3--2---'---3-----3----5---5---5--3-----2-2h3-2-2---|
D:------------------------------------'--1------------8---8--8--5----3--------3---|
A:--6---5---6-------------------------'-------3-----5--------5--3---3---------3---|
E:---------------6---1----------------'----------------------------1----------1---|

Key        :

T   - Tap (Strings)
PM  - Palm Muting
/   - Slide Up
\   - Slide Down
h   - Hammer-on
p   - Pull-off
~   - Let the note ringing
s   - Strum softly
c   - Continue and Continuation

Bar:
-|  - Whole bar
'   - Division
!   - Referring
-:  - Relative
-:: - Relative 2
->  - Unfinished Bar
Comments