Mymp - A Little Bit Chords & Tabs

 

A Little Bit Chords & Tabs

Mymp Chords & Tabs

Version: 10 Type: Tab 0 ratings
1 star 2 stars 3 stars 4 stars 5 stars
comments

A Little Bit Tab

   
A Little Bit
-mymp

tabbed by Charles G. Celestino *charles_111703@yahoo.com*

this song is for my friend, SHANE CHUG!=) sing it shane!

here it goes
(h-hammer s-slide)
INTRO:
e|-----5---|-----4---|-----3---|---------|
B|--7------|--5------|--3------|--2------|
G|--6------|--4------|--4------|--2------|
D|---------|---------|---------|---------|
A|--5------|--4------|--3------|--4------|
E|---------|---------|---------|---------|
   Dmaj7      C#m7     Cmaj9     F#m7


VERSE1:
e|-----4--4----|---2--2-|-----4--4---|----4--|-----------|
B|--5---5--5---|--4-4---|--5---5--5--|--4--4-|--7---7----|
G|--6-------6--|--4-----|--6-------6-|--4----|--7---6----|
D|----7--------|--------|----7-------|---6--6|-----------|
A|--0----0----0|--2--2-0|--0----0---0|--6----|--9-0------|
E|-------------|--------|------------|-------|------7----|

REFRAIN:
e|-----4--4----|---2--2-|-----4--4---|----4--|-----------|
B|--5---5--5---|--4-4---|--5---5--5--|--4--4-|--7---7----|
G|--6-------6--|--4-----|--6-------6-|--4----|--7---6----|
D|----7--------|--------|----7-------|---6--6|-----------|
A|--0----0----0|--2--2-0|--0----0---0|--6----|--9-0------|
E|-------------|--------|------------|-------|------7----|

e|-----4--4----|----4------|----5--5---|--55-strum-------|
B|--5---5--5---|--4--4---5-|--7--7--7--|--66-down--------|
G|--6-------6--|--4------6-|--6------5-|--77-and---------|
D|----7--------|---6--6----|---7--5----|--77-down--------|
A|--0----0----0|--6------4-|--5-------0|-----then--------|
E|-------------|-----------|-----------|-----pause/break-|

CHORUS:
e|-----4--4----|----4------|-----4--4---|----4--|----------|
B|--5---5--5---|--4--4---5-|--5---5--5--|--4--4-|--7---7---|
G|--6-------6--|--4------6-|--6----6--6-|--4----|--7---6---|
D|----7--------|---6--6----|----7-------|---6---|----------|
A|--0----0----0|--6------4-|--0-------0-|--6---6|--9-------|
E|-------------|-----------|------------|-------|----0-7---|

e|-----4--4----|----4------|------7--7--|-----4---------|
B|--5---5--5---|--4--4---5-|----7--7--7-|---5--5--4---2-|
G|--6-------6--|--4------6-|----6------7|---4-----3---2-|
D|----7--------|---6--6----|-----7------|----6----------|
A|--0----0----0|--6------4-|--0-5---5---|-0-4---4-3-0-2-|
E|-------------|-----------|------------|---------------|


VERSE2:                        *lead part
e|-----4--4----|---2--2-|    e|------------------|      
B|--5---5--5---|--4-4---|    B|------------------|      
G|--6-------6--|--4-----|    G|------2-4-4s6-4---|
D|----7--------|--------|    D|---2h4------------|      
A|--0----0----0|--2--2--|    A|------------------|
E|-------------|--------|    E|------------------|     
[ Tab from: http://www.guitartabs.cc/tabs/m/mymp/a_little_bit_tab_ver_10.html ]
e|-----4--4---|----4--|-----------|
B|-5---5--5---|--4--4-|--7---7----|
G|--6-------6-|--4----|--7---6----|
D|----7-------|---6--6|-----------|
A|--0----0---0|--6----|--9-0------|
E|------------|-------|------7----|

REFRAIN:
e|-----4--4----|---2--2-|-----4--4---|----4--|-----------|
B|--5---5--5---|--4-4---|--5---5--5--|--4--4-|--7---7----|
G|--6-------6--|--4-----|--6-------6-|--4----|--7---6----|
D|----7--------|--------|----7-------|---6--6|-----------|
A|--0----0----0|--2--2-0|--0----0---0|--6----|--9-0------|
E|-------------|--------|------------|-------|------7----|

e|-----4--4----|----4------|----5--5---|--55-strum-------|
B|--5---5--5---|--4--4---5-|--7--7--7--|--66-up----------|
G|--6-------6--|--4------6-|--6------5-|--77-and---------|
D|----7--------|---6--6----|---7--5----|--77-up----------|
A|--0----0----0|--6------4-|--5-------0|-----then--------|
E|-------------|-----------|-----------|-----pause/break-|

CHORUS:
e|-----4--4----|----4------|-----4--4---|----4--|----------|
B|--5---5--5---|--4--4---5-|--5---5--5--|--4--4-|--7---7---|
G|--6-------6--|--4------6-|--6----6--6-|--4----|--7---6---|
D|----7--------|---6--6----|----7-------|---6---|----------|
A|--0----0----0|--6------4-|--0-------0-|--6---6|--9-------|
E|-------------|-----------|------------|-------|----0-7---|

e|-----4--4----|----4------|------7-----|----4-----3------------|
B|--5---5--5---|--4--4---5-|----7--7----|---5-----4---[2]strum--|
G|--6-------6--|--4------6-|----6-------|---4-----3---[2]this---|
D|----7--------|---6--6----|-----7------|-------------[4]part---|
A|--0----0----0|--6------4-|--0-5---5---|---4--0--3-0-[2]-------|
E|-------------|-----------|------------|-----------------------|

ADLIB:
*note-u can strum this but do not include the bass string*

e|---------------(p)---------------------|
B|--9s10-9~10-9-5(a)-9s10-9--14-12-------|
G|---------------(u)---------------------|
D|--6s7--6-7--6-2(s)-6s6--6-----------~--|
A|---------------(e)---------------------|
E|xxxxxxxxxxxxxxxxxxxxxxxxxxxxxxxxxxxxxxx|

e|-------------------------------------------|
B|--9s10-9~10-9-5---5h7-7s9-9s12-9-7h9-------|
G|------------------------------------9h11-9-|
D|--6s7--6-7--6-2----------------------------|
A|-------------------------------------------|
E|xxxxxxxxxxxxxxxxxxxxxxxxxxxxxxxxxxxxxxxxxxx|

(repeat refrain, chorus2x till fade)

OUTRO:
e|-----5---|-----4---|-----3---|--2-2----4--|
B|--7------|--5------|--3------|--2--2---5--|
G|--6------|--4------|--4------|--2---2--6--|
D|---------|---------|---------|--4------7--|
A|--5------|--4------|--3------|--2----0-0--|
E|---------|---------|---------|------------|  ENJOY! 


A little bit
By: Charles and Shane =)
Comments