Mymp - A Little Bit Intro Chords & Tabs

 

A Little Bit Intro Chords & Tabs

Mymp Chords & Tabs

Version: 1 Type: Tab 0 ratings
1 star 2 stars 3 stars 4 stars 5 stars
comments

A Little Bit Intro Tab

   
key E


hi..so yeah.. i like this song soooo much..
i sang it once at my school..and yeah..
i think this is kinda accurate..
MYMP STILL ROCKS!!
woot..woot!!

NOTE:  This song requires a lot of tapping..
you should be able to know how the tapping goes..
---Sarah Diamsay

Intro:  

----5---------------------------------
--7---7-------------------------------
--------------------------------------
--------------------------------------
--5-----------------------------------
--------------------------------------
[ Tab from: http://www.guitartabs.cc/tabs/m/mymp/a_little_bit_intro_tab.html ]
----4---------------------------------
--5---5-------------------------------
--------------------------------------
--------------------------------------
--4-----------------------------------
--------------------------------------

----3--------0------------------------
--3---3-------------------------------
--------------------------------------
--------------------------------------
--3----------2------------------------
--------------------------------------






-----4-------
-----4-------
-----4-------
-----2-------
-------------
-------------
Comments