My Vitriol - Vapour Trails Chords & Tabs

 

Vapour Trails Chords & Tabs

My Vitriol Chords & Tabs

Version: 1 Type: Tab 0 ratings
1 star 2 stars 3 stars 4 stars 5 stars
comments

Vapour Trails Tab

song: vapour trails
band: my vitriol
album: betweenthelines (ltd edition single)
sender: charlie (my_third_enigma@hotmail.com)
[ Tab from: http://www.guitartabs.cc/tabs/m/my_vitriol/vapour_trails_tab.html ]
tuning (ebdgae)
heavy distortion all through, quite bassy at times.
intro, guitar 1
 |------------------------------------------|
 |------------------------------------------|
 |------------------------------------------|
 |----9-9-9-9-9---5-5-5-5-5-5---------------|
 |----9-9-9-9-9---5-5-5-5-5-5--------------|
 |----7-7-7-7-7---3-3-3-3-3-3-------------|
intro guitar 2
 |---------------------------------------------------------------------
 |-14~~~~-14---10-10--14~~~~-14---10-10--10s12~~~12--10-------------------
 |--------------------------------------------------------10-12-10-------
 |--------------------------------------------------------------------------------
 |-------------------------------------------------------------------------------
 |---------------------------------------------------------------------------- 
verse, (guitar one only) 
*the strumming is really easy, so 
i won't put it on*
 |----------------------------------------|
 |----------------------------------------|
 |----------------------------------------|
 |--9---5---9--5--7--2--9--5--9--5--7--2--|
 |--9---5---9--5--7--2--9--5--9--5--7--2--|
 |--7---3---7--3--5--0--7--3--7--3--5--0--|
 chorus 
 |-------------------------|
 |-------------------------|
 |-------9------9------9---|
 |----5--9---5--9--5--9----|
 |----5--7---5--7--5--7----|
 |----3--0---3--0--3--0----|
 pick around these chords for the doooooo oooooo bit
 |--------7--------------------------|
 |--------7--------------------------|
 |---12---9--------------------------|
 |---12---9--------------------------|
 |---10---7--------------------------|
 |-----------------------------------|
for that last crescendo, play this, 
and use the wah to sound like a scream
you do the chords a few times, then there 
are some rythm clicks *mutes* and the
chords again
 |----------------------------------------------|
 |----------------------------------------------|
 |----------------------------------------------|
 |--5-5-5-5-5--9-9-9----------------------------|
 |--5-5-5-5-5--9-9-9----------------------------|
 |--3-3-3-3-3--7-7-7----------------------------|

byes byes
Comments