My Vitriol - Static Chords & Tabs

 

Static Chords & Tabs

My Vitriol Chords & Tabs

Version: 1 Type: Tab 0 ratings
1 star 2 stars 3 stars 4 stars 5 stars
comments

Static Tab

   
#----------------------------------PLEASE NOTE---------------------------------#
#This file is the author's own work and represents their interpretation of the #
#song. You may only use this file for private study, scholarship, or research. #
#------------------------------------------------------------------------------##

                                     STATIC
                            As recorded by My Vitriol
                   (From the 2000 LP recording PIECES SINGLE)

Words and Music by Greenlees / Zaluckyj / Zablocki / Mohr
Arranged by My Vitriol
Transcribed by John Henson - theredqueen.net
www.theredqueen.net for more my vitriol tabs

          F#5                  G5                   A5                   E5
      4 4 4 x x x          5 5 5 x x x          7 7 7 x x x          2 2 2 x x x

          B5                   D5
      9 9 9 x x x          0 0 0 x x x

Riff A :


|---------|---------|---------|---------|---------|---------|---------|
|---------|---------|---------|---------|---------|---------|---------|
|---------|---------|---------|---------|---------|---------|---------|
|-4-4-4-4-|-5-5-5-5-|-7-7-7-7-|-4-4-4-4-|-2-2-2-2-|-4-4-4-4-|-9-9-9-9-|
|-4-4-4-4-|-5-5-5-5-|-7-7-7-7-|-4-4-4-4-|-2-2-2-2-|-4-4-4-4-|-9-9-9-9-|
|-4-4-4-4-|-5-5-5-5-|-7-7-7-7-|-4-4-4-4-|-2-2-2-2-|-4-4-4-4-|-9-9-9-9-|


|---------|---------|---------|---------|---------|---------|----------|
|---------|---------|---------|---------|---------|---------|----------|
|---------|---------|---------|---------|---------|---------|----------|
|-9-9-9-9-|-4-4-4-4-|-5-5-5-5-|-7-7-7-7-|-4-4-4-4-|-2-2-2-2-|-2-2-2-2--|
|-9-9-9-9-|-4-4-4-4-|-5-5-5-5-|-7-7-7-7-|-4-4-4-4-|-2-2-2-2-|-2-2-2-2--|
|-9-9-9-9-|-4-4-4-4-|-5-5-5-5-|-7-7-7-7-|-4-4-4-4-|-2-2-2-2-|-2-2-2-2--|


Riff B :


|---------------------|---------|---------------------|---------|---------------------|---------|---------------------|---------|
|---------------------|---------|---------------------|---------|---------------------|---------|---------------------|---------|
|-13-13-13-13b13.5r13-|------13-|-12-12-12-12b12.5r12-|------12-|-13-13-13-13b13.5r13-|------13-|-12-12-12-12b12.5r12-|------12-|
|-11-11---------------|---------|-10-10---------------|---------|-11-11---------------|---------|-10-10---------------|---------|
|---------------------|---------|---------------------|---------|---------------------|---------|---------------------|---------|
|---------------------|---------|---------------------|---------|---------------------|---------|---------------------|---------|
[ Tab from: http://www.guitartabs.cc/tabs/m/my_vitriol/static_tab.html ]
|---------------------|---------|---------------------|---------|---------------------|---------|---------------------|---------|
|---------------------|---------|---------------------|---------|---------------------|---------|---------------------|---------|
|---------------------|---------|---------------------|---------|---------------------|---------|---------------------|---------|
|-4-----4-------------|-4--4----|-0-----0-------------|-0--0----|-4-----4-------------|-4--4----|-0-----0-------------|-0--0----|
|-4-----4-------------|-4--4----|-0-----0-------------|-0--0----|-4-----4-------------|-4--4----|-0-----0-------------|-0--0----|
|-4-----4-------------|-4--4----|-0-----0-------------|-0--0----|-4-----4-------------|-4--4----|-0-----0-------------|-0--0----|


Chorus :


|---------|---------|---------|----------|---------|---------|---------|
|---------|---------|---------|----------|---------|---------|---------|
|---------|---------|---------|-------11-|---------|---------|---------|
|---------|---------|---------|----------|---------|---------|---------|
|---------|---------|---------|----------|---------|---------|---------|
|---------|---------|---------|----------|---------|---------|---------|

|---------|---------|---------|----------|---------|---------|---------|
|---------|---------|---------|----------|---------|---------|---------|
|---------|---------|---------|----------|---------|---------|---------|
|-4-4-4-4-|-0-0-0-0-|-2-2-2-2-|-0-0-0-0--|-4-4-4-4-|-0-0-0-0-|-2-4-5-7-|
|-4-4-4-4-|-0-0-0-0-|-2-2-2-2-|-0-0-0-0--|-4-4-4-4-|-0-0-0-0-|-2-4-5-7-|
|-4-4-4-4-|-0-0-0-0-|-2-2-2-2-|-0-0-0-0--|-4-4-4-4-|-0-0-0-0-|-2-4-5-7-|


|---------|
|---------|
|---------|
|---------|
|---------|
|---------|

|---------|
|---------|
|---------|
|-0-0-0-0-|
|-0-0-0-0-|
|-0-0-0-0-|

Guitar Solo :


|-------|-------|-------|-------|-------|-------|-------|-------|
|-------|-------|-------|-------|-------|-------|-------|-------|
|-9--9--|-9--9--|-9--9--|-9--9--|-9--9--|-9--9--|-9--9\-|-6--6--|
|-------|-------|-------|-------|-------|-------|-------|-------|
|-------|-------|-------|-------|-------|-------|-------|-------|
|-------|-------|-------|-------|-------|-------|-------|-------|


|-------|-------|-------|-------|-------|-------|-------|
|-------|-------|-------|-------|-------|-------|-------|
|-6--6\-|-9--9--|-9--9--|-9--9--|-9--9--|-9--9--|-9--9--|
|-------|-------|-------|-------|-------|-------|-------|
|-------|-------|-------|-------|-------|-------|-------|
|-------|-------|-------|-------|-------|-------|-------|


|-------|--------|-------|
|-------|--------|-------|
|-9--9\-|-/4--4--|-4--4--|
|-------|--------|-------|
|-------|--------|-------|
|-------|--------|-------|

Bridge :

|---------|---------|---------|---------|---------|---------|----------|
|---------|---------|---------|---------|---------|---------|----------|
|-------6-|-7-6-7-6-|-------6-|-7-6-7-6-|-------6-|-7-6-7-6-|-------6--|
|-4-4-4-4-|-4-4-4-4-|-4-4-4-4-|-4-4-4-4-|-4-4-4-4-|-4-4-4-4-|-4-4-4-4--|
|-0-0-0-0-|-0-0-0-0-|-0-0-0-0-|-0-0-0-0-|-0-0-0-0-|-0-0-0-0-|-0-0-0-0--|
|---------|---------|---------|---------|---------|---------|----------|


|---------|
|---------|
|-7-6-7-6-|
|-4-4-4-4-|
|-0-0-0-0-|
|---------|


--------------------------------------------------------------------------------
Legend
------

 h  = hammer-on		 |  = bar
 p  = pull-off		||  = double bar
 b  = bend		||* = repeat start
 r  = bend release	*|| = repeat end
 /  = slide up/down	*|  = double bar (end)
[5] = nat. harmonic	 !  = repeat beat (ΒΌ,8th)
 = art. harmonic	!!  = repeat beat (16th)
 ~  = vibrato		 %  = repeat measure
 tr = trill		 :  = bar (freetime)
 T  = tap		du  = tremolo bar dip
 TP = trem. picking	 d  = tremolo bar down
 PM = palm muting	 u  = tremolo bar up
 S  = slap		ud  = tremolo bar inverted dip
 P  = pop		 =  = hold (bend or tremolo bar)
--------------------------------------------------------------------------------
Comments