My Vitriol - Safety Zones And Crumple Zones Chords & Tabs

 

Safety Zones And Crumple Zones Chords & Tabs

My Vitriol Chords & Tabs

Version: 1 Type: Tab 0 ratings
1 star 2 stars 3 stars 4 stars 5 stars
comments

Safety Zones And Crumple Zones Tab

   
song: safety zones & crumple zones
artist: my vitriol
album: betweenthelines
sender: charlie, my_third_enigma@hotmail.com




[ Tab from: http://www.guitartabs.cc/tabs/m/my_vitriol/safety_zones_and_crumple_zones_tab.html ]
 okay, tuning (e b g d a e) chorus/delay all through
 |---------------------------------------------------------------
 |------2-----------2----------------1----------------1----------
 |----------4------------4-----------------4-----------------4---
 |---0----------0------------------------------------------------
 |--------------------------------3--------------3---------------
 |---------------------------------------------------------------
pick around the first two chords,
and then strum the other chords
play it all in time with the cd 
 |--------5--------5--------------------------------------
 |---4----5----4---5--------------------------------------
 |---6----7----6---7--------------2------5----2----5------
 |---6----7----6---7--------------2------5----2----5------
 |---4----5----4---5--------------0------3----0----3------
 |--------------------------------------------------------
                                                         
after each chorus there is an effect, 
some delay, and then a slide or something
improvise your own.
Comments