My Vitriol - Grounded Chords & Tabs

 

Grounded Chords & Tabs

My Vitriol Chords & Tabs

Version: 1 Type: Tab 0 ratings
1 star 2 stars 3 stars 4 stars 5 stars
comments

Grounded Tab

My Vitriol
Grounded

Tuning: Standard (EADGBE). Capo on 3rd Fret.
Tabbed: John_17


Intro (Repeat x2)

E-0-00-00--0-00-00--0-00-00--00000000--|  
B-0-00-00--0-00-00--0-00-00--00000000--|
G-2-22-22--2-22-22--3-33-33--22222222--|
D-2 22 22--2-22-22--4-44-44--33333333--|
A-0-00-00--0-00-00--4-44-44--33333333--|
E-0-00-00--0-00-00--2-22-22--11111111--|

Verse 1

E------------------------------------------1--1--|
B------0--------0--------0--------------1--------|
G---------2--------2--------2--------2-----------|
D---------------------------------3--------------|
A---0--------0-----------------------------------|
E---------------------2--------1-----------------|

Chorus
[ Tab from: http://www.guitartabs.cc/tabs/m/my_vitriol/grounded_tab.html ]
E-0-00-00--0-00-00--0-00-00--00000000-| Repeat again, but on last bit only
B-0-00-00--0-00-00--0-00-00--00000000-| strum once and let ring.
G-6-66-66--6-66-66--3-33-33--22222222-|
D-7-77-77--7-77-77--4-44-44--33333333-|
A-7-77-77--7-77-77--4-44-44--33333333-|
E-5-55-55--4-44-44--2-22-22--11111111-|

Verse 2

E------------------------------------------1--1--|
B------0--------0--------0--------------1--------|
G---------2--------2--------2--------2-----------|
D---------------------------------3--------------|
A---0--------0-----------------------------------|
E---------------------2--------1-----------------|

Chorus

E-0-00-00--0-00-00--0-00-00--00000000-| Repeat x6, but on the 6th time, let
B-0-00-00--0-00-00--0-00-00--00000000-| the last bit ring again.
G-6-66-66--6-66-66--3-33-33--22222222-|
D-7-77-77--7-77-77--4-44-44--33333333-|
A-7-77-77--7-77-77--4-44-44--33333333-|
E-5-55-55--4-44-44--2-22-22--11111111-|


Very simple song to play, as this is my first tab. Thanks for looking.
Comments