My Vitriol - Always Your Way Chords & Tabs

 

Always Your Way Chords & Tabs

My Vitriol Chords & Tabs

Version: 1 Type: Tab 0 ratings
1 star 2 stars 3 stars 4 stars 5 stars
comments

Always Your Way Tab

#----------------------------------PLEASE NOTE---------------------------------#
#This file is the author's own work and represents their interpretation of the #
#song. You may only use this file for private study, scholarship, or research. #
#------------------------------------------------------------------------------##

                                 ALWAYS YOUR WAY
                            As recorded by My Vitriol
                         (Released as a Single in 2000)

Words by Som WardnerMusic by My Vitriol
Transcribed by John Henson
www.theredqueen.net for more my vitriol tabs



Intro

|-0-0-0-0-|-2-2-0-0-|-0-0-0-0-|-2-2-0-0-|
|-3-3-3-3-|-3-3-2-2-|-3-3-3-3-|-3-3-2-2-|
|-2-2-2-2-|-2-2-0-0-|-2-2-2-2-|-2-2-0-0-|
|-0-0-0-0-|-0-0-0-0-|-0-0-0-0-|-0-0-0-0-|
|-0-0-0-0-|-0-0-----|-0-0-0-0-|-0-0-----|
|---------|---------|---------|---------|

Verse (And throughout)

|-0-0-0-0-|-0-0-0-0-|-0-0-0-0-|-0-0-0-0-|-0-0-0-0-|
|-3-3-3-3-|-2-2-2-2-|-0-0-0-0-|-0-0-0-0-|-3-3-3-3-|
|-2-2-2-2-|-2-2-2-2-|-0-0-0-0-|-0-0-0-0-|-2-2-2-2-|
|-0-0-0-0-|-0-0-0-0-|-2-2-2-2-|-0-0-0-0-|-0-0-0-0-|
|---------|---------|-2-2-2-2-|-2-2-2-2-|---------|
|---------|---------|-0-0-0-0-|-3-3-3-3-|---------|

Chorus 

|---------|-0-0-0-0-|-0-0-0-0-|-0-0-0-0-|
|---------|-0-0-0-0-|-3-3-3-3-|-2-2-2-2-|
|-0-0-0-0-|-0-0-0-0-|-2-2-2-2-|-2-2-2-2-|
|-2-2-2-2-|-0-0-0-0-|-0-0-0-0-|-0-0-0-0-|
|-2-2-2-2-|-2-2-2-2-|---------|---------|
|-0-0-0-0-|-3-3-3-3-|---------|---------|



Intro and fills

|---------|---------|---------|---------|-----------|-----------|
|-9-7-9-7-|-9-7-9-7-|-9-7-9-7-|-9-7-9-7-|-----------|-------9---|
|---------|---------|---------|---------|-9-9-11-11-|-11-11---8-|
|---------|---------|---------|---------|-----------|-----------|
|---------|---------|---------|---------|-----------|-----------|
|---------|---------|---------|---------|-----------|-----------|

[ Tab from: http://www.guitartabs.cc/tabs/m/my_vitriol/always_your_way_tab.html ]
|---------|---------|---------|---------|-----------|-----------|---------|
|-9-7-9-7-|-9-7-9-7-|-9-7-9-7-|-9-7-9-7-|-----------|-------9---|---------|
|---------|---------|---------|---------|-9-9-11-11-|-11-11---8-|-9-9-9-9-|
|---------|---------|---------|---------|-----------|-----------|---------|
|---------|---------|---------|---------|-----------|-----------|---------|
|---------|---------|---------|---------|-----------|-----------|---------|


|---------|---------|---------|---------|---------|
|---------|---------|---------|---------|---------|
|-9-9-9-9-|-8-8-8-8-|-9-9-9-9-|-9-9-9-9-|-8-8-8-8-|
|---------|---------|---------|---------|---------|
|---------|---------|---------|---------|---------|
|---------|---------|---------|---------|---------|

In Verse

|-------------|
|-------12-9--|
|-11-11-------|
|-------------|
|-------------|
|-------------|

Solo/Outro

|-------------|-------------|-------------|-------------|-------------|--------|--------------|
|-------------|-------------|-------------|-12----------|-------------|--------|-12-12-12-12--|
|-14-13-13-13-|-14-13-13-13-|-14-13-13-13-|----14-13-14-|-14-14-13-13-|-(9)----|--------------|
|-------------|-------------|-------------|-------------|-------------|--------|--------------|
|-------------|-------------|-------------|-------------|-------------|--------|--------------|
|-------------|-------------|-------------|-------------|-------------|--------|--------------|


|-------------|-------------|-----------|-----------|-------|
|-12-12-12-12-|-12-12-12-12-|-10-9-10-9-|-10-9-10-9-|-7--3--|
|-------------|-------------|-----------|-----------|-------|
|-------------|-------------|-----------|-----------|-------|
|-------------|-------------|-----------|-----------|-------|
|-------------|-------------|-----------|-----------|-------|


--------------------------------------------------------------------------------
Legend
------

 h  = hammer-on		 |  = bar
 p  = pull-off		||  = double bar
 b  = bend		||* = repeat start
 r  = bend release	*|| = repeat end
 /  = slide up/down	*|  = double bar (end)
[5] = nat. harmonic	 !  = repeat beat (ΒΌ,8th)
 = art. harmonic	!!  = repeat beat (16th)
 ~  = vibrato		 %  = repeat measure
 tr = trill		 :  = bar (freetime)
 T  = tap		du  = tremolo bar dip
 TP = trem. picking	 d  = tremolo bar down
 PM = palm muting	 u  = tremolo bar up
 S  = slap		ud  = tremolo bar inverted dip
 P  = pop		 =  = hold (bend or tremolo bar)
--------------------------------------------------------------------------------
Comments