My Sweet Disaster - The Art Of Taking That Knife To My Heart Chords & Tabs

 

The Art Of Taking That Knife To My Heart Chords & Tabs

My Sweet Disaster Chords & Tabs

Version: 1 Type: Tab 0 ratings
1 star 2 stars 3 stars 4 stars 5 stars
comments

The Art Of Taking That Knife To My Heart Tab

My sweet disaster - "the art of taking that knife to my heart"
tabbed by nick gwinn

[ Tab from: http://www.guitartabs.cc/tabs/m/my_sweet_disaster/the_art_of_taking_that_knife_to_my_heart_tab.html ]
intro (this is random picking my than anything)
|-------------------------------------
|-------------------------------------
|-------------------------------------
|----6--------4--------7---------6----
|---4--etc---2--etc---5--etc----4--etc
|--4--------2--------5---------4------

verse and chorus
|--4---2---5---4----
|--4---2---5---4----
|--4---2---5---4----
|--6---4---7---6----
|--4---2---5---4----
|--4---2---5---4----

end on
|---2--
|---2--
|---2--
|---4--
|---2--
|---2--
same with outro...just listen for the change in strum patterns...
questions or comments to thisisgump@hotmail.com
music at www.soundclick.com/mysweetdisaster
Comments